Song name
# A B C D E F G H I J K L M N O P Q R S T U V W X Y Z

Trivium - Vengeance tab

Tabbed by: Connor Ford

Band:  Trivium
Song:  Vengeance Falls
Album: Vengeance Falls (2013)


Tuning: Drop C# (C#, G#, C#, F#, A#, D#)
(Tune all strings down half a step then drop tune)



Vengeance Falls will be tabbed very soon...

If you're fans of Trivium's early stuff, be sure to check out Shogun
and In Waves on my contributions!

Please rate, comment, correct, anything that will help :)





Hammer on:        h
Pull off:         p
Slide up:         /
Slide down:       \
Bend up:          BU(?)
Tapped note:      T
Vibrato:          ~~~
Pinch Harmonic:   PH
Natural Harmonic: NH
Dive Bomb:        DB
After Muting:     M
Pick slide:       X\\\ ('\' indicated duration)

Guitar 1:        Matt Heafy
Guitar 2:        Corey Beaulieu
Guitar 3:        Corey Beaulieu (Additional harmonies)


________________________________________________________________________________



Intro
Guitar 1
||---------------------------------------------------------------------------||
|o---------------------------------------------------------------------------o|
||---------------------------------------------------------------------------||
||-0-0-0-0-10h12-0-0-0-0-10h12-0-0-0-0-10h12-0-0-0-0-10h12-0-0-0-0-10h12-0-0-||
|o---------------------------------------------------------------------------o|
||---------------------------------------------------------------------------||


________________________________________________________________________________


Build up
Both guitars
||---------------------------------------------------------------------------|
|o---------------------------------------------------------------------------|
||---------------------------------------------------------------------------|
||-0-0-0-0-10h12-0-0-0-0-10h12-0-0-0-0-10h12-0-0-0-0-10h12-0-0-0-0-10h12-0-0-|
|o---------------------------------------------------------------------------|
||---------------------------------------------------------------------------|

|-----------------------------------------------------------------|
|-----------------------------------------------------------------|
|-----------------------------------------------------------------|
|---------7p0---------7p0---------7p0---------7p0---------7p0-----|
|-----------------------------------------------------------------|
|-8-8-8-8-----8-8-8-8-----8-8-8-8-----8-8-8-8-----8-8-8-8-----8-8-|

|---------------------------------------------------------------------------------------|
|---------------------------------------------------------------------------------------|
|---------------------------------------------------------------------------------------|
|-------------8p0-------------8p0-------------8p0-------------8p0-------------8p0-------|
|---------------------------------------------------------------------------------------|
|-10-10-10-10-----10-10-10-10-----10-10-10-10-----10-10-10-10-----10-10-10-10-----10-10-|

|-----------------------------------------------------------------||
|-----------------------------------------------------------------o|
|-----------------------------------------------------------------||
|---------3p0---------3p0---------3p0---------3p0---------3p0-----||
|-----------------------------------------------------------------o|
|-5-5-5-5-----5-5-5-5-----5-5-5-5-----5-5-5-5-----5-5-5-5-----5-5-||

________________________________________________________________________________



Verse 1
Both guitars
||-----------------------------------------------------------------|
|o-----------------------------------------------------------------|
||-----------------------------------------------------------------|
||-------------------------------------------------3p0-------------|
|o-----------------------------------------------------3p0---------|
||-00M---00M---0-0-0-0-0-0-00M---00M---0-0-0-0-0-0---------3h5p3p0-|

|-----------------------------------------------------------------||
|-----------------------------------------------------------------o|
|-----------------------------------------------------------------||
|-------------------------------------------------6p0-3p0---------||
|---------------------------------------------------------3h5p3p0-o|
|-00M---00M---0-0-0-0-0-0-00M---00M---0-0-0-0-0-0-----------------||

Guitar 1
|-----------------------------------------------------------------|
|-----------------------------------------------------------------|
|-----------------------------------------------------------------|
|-----------------------------------------------------------------|
|-3---3---3---3---3---3---3---3---3---3---3---3---3-3-3-3-3-3-3-3-|
|-3---3---3---3---3---3---3---3---3---3---3---3-------------------|
|
|Guitar 2                                         NH-------------
|-----------------------------------------------------------------|
|-----------------------------------------------------------------|
|-----------------------------------------------------------------|
|-------------------------------------------------7-7-7-7-7-7-7-7-|
|-3---3---3---3---3---3---3---3---3---3---3---3-------------------|
|-3---3---3---3---3---3---3---3---3---3---3---3-------------------|


________________________________________________________________________________



Chorus
Guitar 1
|---------------------------------|---------------------------------|
|---------------------------------|---------------------------------|
|---------------------------------|---------------------------------|
|---------------------------------|---------------------------------|
|-0-0-0-0-0-0-0-0-0-0-0-0-0-0-0-0-|-3-3-3-3-3-3-3-3-3-3-3-3-3-3-3-3-|
|-0-0-0-0-0-0-0-0-0-0-0-0-0-0-0-0-|-3-3-3-3-3-3-3-3-3-3-3-3-3-3-3-3-|
|
|Guitar 2
|---------------------------------|---------------------------------|
|---------------------------------|---------------------------------|
|-10---\7----/14~~~~~~~~~~~~~~~~~-|-10---\7----/10~~~~~~~~~~~~~~~~~~|
|---------------------------------|---------------------------------|
|---------------------------------|---------------------------------|
|---------------------------------|---------------------------------|

Guitar 1
|---------------------------------|---------------------------------|
|---------------------------------|---------------------------------|
|---------------------------------|---------------------------------|
|-5-5-5-5-5-5-5-5-5-5-5-5-5-5-5-5-|---------------------------------|
|-3-3-3-3-3-3-3-3-3-3-3-3-3-3-3-3-|-5-5-5-5-5-5-5-5-5-5-5-5-5-5-5-5-|
|---------------------------------|-5-5-5-5-5-5-5-5-5-5-5-5-5-5-5-5-|
|
|Guitar 2
|---------------------------------|---------------------------------|
|---------------------------------|---------------------------------|
|-12--\10--\9~~~~~~~~~~~~~~~~~~~~~|-12--\10\7~~~~~~~~~~~~~~~~~~~~~~-|
|---------------------------------|---------------------------------|
|---------------------------------|---------------------------------|
|---------------------------------|---------------------------------|


________________________________________________________________________________


Repeat Verse 1

Repeat Chorus

________________________________________________________________________________


Breakdown
Guitar 2 (Phaser effect)
|-------------------------------------------------------------|
|-------------------------------------------------------------|
|-------------------------------------------------------------|
|-10p0--------14p0--10p0--------15p0-10p0--------14p0-10p0----|
|-------------------------------------------------------------|
|-------12p0--------------12p0-------------12p0------------7/-|

Guitar 1
|--------------------------------------------------------------|
|--------------------------------------------------------------|
|--------------------------------------------------------------|
|-------------------------------------------------14p0-10p0----|
|-0-0-0-0-M-----------0-0-0-0-M-------0-0-0-0-M----------------|
|-0-0-0-0-M-----------0-0-0-0-M-------0-0-0-0-M-------------/7-|
|
|Guitar 2
|--------------------------------------------------------------------|
|--------------------------------------------------------------------|
|--------------------------------------------------------------------|
|-10p0----------14p0---10p0----------15p0-10p0----------14p0-10p0----|
|--------------------------------------------------------------------|
|--------12p0-----------------12p0---------------12p0-------------7/-|

The third and fourth time this is played guitar 1
lets all the open C# to ring out

The fourth time at the end this is played:

Both guitars
|----------------------------------------|
|----------------------------------------|
|----------------------------------------|
|-14p0-10p0----15p0-10p0----17p0-10p0----|
|----------------------------------------|
|-----------7/-----------7/-----------7/-|

Guitar 1
|---------------------|
|---------------------|
|---------------------|
|-15p0-14p0-12p0-10p0-|
|---------------------|
|---------------------|
|
|Guitar 2
|---------------------|
|---------------------|
|---------------------|
|-19p0-17p0-15p0-14p0-|
|---------------------|
|---------------------|


________________________________________________________________________________


Solo (CKB)
Guitar 2
|-22PB~~-(20)(22)~~-20/22-------------------------------|
|-------------------------20BU(22)~~-(20)(22)~~-(20)p18-|
|-------------------------------------------------------|
|-------------------------------------------------------|
|-------------------------------------------------------|
|-------------------------------------------------------|

Guitar 2
|-------17----------------15-12-13----12----------|
|-13-15----13-15----13-------------15----13-15-11-|
|----------------15----14-------------------------|
|-------------------------------------------------|
|-------------------------------------------------|
|-------------------------------------------------|
|
|Guitar 3
|-------20----------------18-15-17----15----------|
|-17-18----17-18----17-------------18----17-18-15-|
|----------------19----17-------------------------|
|-------------------------------------------------|
|-------------------------------------------------|
|-------------------------------------------------|

Guitar 2
|----------13p12-------------------------|
|-17~~~~~~-------13----------------------|
|-------------------12\9h10h12-9~~~~~~~~-|
|----------------------------------------|
|----------------------------------------|
|----------------------------------------|
|
|Guitar 3
|----------------------------------------|
|-13~~~~~~-15p13-------------------------|
|----------------14----------------------|
|-------------------14\10h12h14-10~~~~~~-|
|----------------------------------------|
|----------------------------------------|

                 T        T        T        T  T        T  T
|---------12h15-20p15p12-------------------------------------------|
|-------13---------------------------------------------------------|
|-----12-----------------17p14p12-15p14p12-15-15p14p12-15-15p14p12-|
|---14-------------------------------------------------------------|
|-15---------------------------------------------------------------|
|------------------------------------------------------------------|

|-----------------|
|-15~~~~~~~~~~~~~-|
|-----------------|
|-12~~~~~~~~~~~~~-|
|-----------------|
|-----------------|

________________________________________________________________________________


Bridge (Also solo rhythm)
Both guitars
|-----------------------------------------------------------------|
|-----------------------------------------------------------------|
|-----------------------------------------------------------------|
|-------------------------------------3h7---3h7---3h7---3h7---3h7-|
|-----5h8---5h8---5h8---5h8---5h8---------------------------------|
|-0-0-----0-----0-----0-----0-----3-3-----3-----3-----3-----3-----|

|-----------------------------------------------------------------|
|-----------------------------------------------------------------|
|-----------------------------------------------------------------|
|-----2h5---2h5---2h5---2h5---2h5-----5h8---5h8---5h8---5h8---5h8-|
|-3-3-----3-----3-----3-----3-------------------------------------|
|---------------------------------5-5-----5-----5-----5-----5-----|

Guitar 1
|-----------------------------------------------------------------|
|-----------------------------------------------------------------|
|-2-0-------------3-2---------------------------------------------|
|-----3-2-0-----------5-3-2---------------------------------------|
|-----------4-1-0-----------5-4-----------------------------------|
|-------------------------------7~~~~~~~~~~~~~~~~~~~~~~~~~~~~~~~~-|
|
|Guitar 2
|-----------------------------------------|
|-----------------------------------------|
|-5-3-------------7-5---------------------|
|-----7-5-3-----------8-7-5---------------|
|-----------7-5-4-----------8-7-4~~~~~~~~-|
|-----------------------------------------|

Guitar 2
|-15BU(17)(15)-13-12-13-12h13p12-------|
|--------------------------------15-13-|
|--------------------------------------|
|--------------------------------------|
|--------------------------------------|
|--------------------------------------|


________________________________________________________________________________



Repeat Verse 1

The third and fourth time verse 1 is played
The strings are not muted

Finally play this
Both guitars
|-------------|
|-------------|
|-------------|
|-------------|
|-------------|
|-0-0---0-0---|


________________________________________________________________________________


That's all of it, please rate :)
Tap to rate this tab
 
# A B C D E F G H I J K L M N O P Q R S T U V W X Y Z