Song name
# A B C D E F G H I J K L M N O P Q R S T U V W X Y Z

Trivium - Vengeance tab

-------------------------------------------------------------------------------
			     Vengeance - Trivium
-------------------------------------------------------------------------------
Tabbed by: Alex
Email: xander1711@hotmail.com

Tuning: Standard (EADGBe)


I tabbed this solo since there wasnt a correct tab of the solo that i could find.


Tuning - standard (EADGBe)

h  - hammer on
p  - pull off
~  - sustain note for a couple of seconds
/  - slide up to note
\  - slide down from note
b  - bend note up to specific note
br - bend return
*  - pinch harmonic
^  - Dime squeal bent up to specific note
>  - lower the note by using the tremolo/whammy bar

Pre solo Riff (2:24 - 2:32)

e||--------------------------------------------------|
B||--------------------------------------------------|
G||--------------------------------------------------|
D||--------------------------------------------------|
A||--------3---3-2---2------3-2---2------------------|
E||--0-2-3---------3---3-2------3---3-2-0------------|

Solo  (2:32 - 3:01)

e||-------------------------------------------------------------------------------------------|
B||-------------------------------------------------------------------------------------------|
G||---10-9-7----9-7------7-------------7-9-10-9-7----9-7------7-------------7-9-10------------|
D||-7--------10-----10-9---10-9-7-9-10------------10-----10-9---10-9-7-9-10-------------------|
A||-------------------------------------------------------------------------------------------|
E||-------------------------------------------------------------------------------------------|

e||-------------------------------------------------------------------------------------------|
B||-------------------------------------------------------------------------------------------|
G||-12-10-9----10-9-------9---------------9-10-12-10-9----10-9-------9---------------9-10-12--|
D||---------12------12-10---12-10-9-10-12--------------12------12-10---12-10-9-10-12----------|
A||-------------------------------------------------------------------------------------------|
E||-------------------------------------------------------------------------------------------|

e||-------------------------------------------------------------------------------------------|
B||-------------------------------------------------------------------------------------------|
G||-14-12-10--12-10-----10--------------10-12-14-12-10--12-10-----10--------------10-12-14----|
D||---------14-----14-12--14-12-10-12-14--------------14-----14-12--14-12-10-12-14------------|
A||-------------------------------------------------------------------------------------------|
E||-------------------------------------------------------------------------------------------|

e||---------------------------------------------------------------17\----|
B||----------------------------------------------------------------------|
G||-16-14-12--14-12-----12---------------12-14-16-14-12------------------|
D||---------16-----16-14--16-14-12-14-16----------------16-14-12---------|
A||----------------------------------------------------------------------|
E||----------------------------------------------------------------------|

e||-17p12----------12h17p12----------12--13p12-13-15-13p12-13p12-12----12----------------|
B||-------13----13----------13----13--------------------------------15----15-13-12*------|
G||----------14----------------14--------------------------------------------------------|
D||--------------------------------------------------------------------------------------|
A||--------------------------------------------------------------------------------------|
E||--------------------------------------------------------------------------------------|

e||-/19-20--17-19-----19-----19-----19-------------|
B||---------------20-----19-----17----13-12--------|
G||------------------------------------------------|
D||------------------------------------------------|
A||------------------------------------------------|
E||------------------------------------------------|

e||-------------------------------------------------------------------15b17-----|
B||-13----------------13----------------13----13--------------------------------|
G||----16-14-13-14-16----16-14-13-14-16----16----16-14-16-17-16-17-19-----------|
D||-----------------------------------------------------------------------------|
A||-----------------------------------------------------------------------------|
E||-----------------------------------------------------------------------------|

e||----17r15-13-12-13-12-19b20br19-----|
B||------------------------------------|
G||------------------------------------|
D||------------------------------------|
A||------------------------------------|
E||------------------------------------|

e||-----------------------------------------(17)---|
B||----------17----------------17------------------|
G||-17-19-20----20-19-17-19-20----20-19-17---------|x2
D||------------------------------------------------|
A||------------------------------------------------|
E||------------------------------------------------|

e||-------------------------------------------------------------------------------------------|
B||----------17----------------17----------------17-------------------------------------------|
G||-17-19-20----20-19-17-19-20----20-19-17-19-20----17h19h20p19p17-19p17p16--17p16p14--14\----|
D||-------------------------------------------------------------------------------------------|
A||-------------------------------------------------------------------------------------------|
E||-------------------------------------------------------------------------------------------|


e||----------------------------------------------|
B||-----------------------------------13~--------|
G||--14-12----12---------------------------------|
D||--------14----14-13-12----12-13-14------------|
A||-----------------------15---------------------|
E||----------------------------------------------|

guitar I

e||-12-11---12h15p12-------12h15p12-------12h15p12--------12h15p12---------------|
B||------------------15b17----------15b17-----------15b17-----------15b17~-------|
G||------------------------------------------------------------------------------|
D||------------------------------------------------------------------------------|
A||------------------------------------------------------------------------------|
E||------------------------------------------------------------------------------|

guitar II (at this point guitar II/Matt.H does a dime squeal at the very end)

e||------------------------------------------------------------------------------|
B||------------------------------------------------------------------------------|
G||----------------------------------------------------------------7^21>---------|
D||------------------------------------------------------------------------------|
A||------------------------------------------------------------------------------|
E||------------------------------------------------------------------------------|

If you don't understand whats going on with that dimesqueal at the end ill explain...
 Assuming you already know how to do a dime squeal (if not go on youtube to find lessons 
how)

hit the harmonic on the 7th fret then bend the note up slightly so that it makes the 
fret note then press down on your tremolo/whammy bar so that the note deepens.


Thanks for reading my tab hope you enjoyed it.
Comments and ratings are welcome
Tap to rate this tab
# A B C D E F G H I J K L M N O P Q R S T U V W X Y Z