Guitaretab - guitar tabs
Song name
# A B C D E F G H I J K L M N O P Q R S T U V W X Y Z

Trivium - My Hatred tab

Tabbd by: Ricky Stickland
E-mail: Ricardooya@hotmail.com

...solo to My Hatred, enjoy.

e|------------------------------------------------------------------------|
B|------------------------------------------------------------------------|
G|----------------------------------------------------21-------21---------|
D|--20p19p17h19~-20p19p17------------------17~--17-19----17-19------------|
A|-----------------------19-17-19--17-19-20-------------------------------|
E|------------------------------------------------------------------------|

e|------------------------------------------------------------------------|
B|-20p19p17-20-19-17------------------------------20p19p17-20p19p17-------|
G|-------------------17-17-17-19-19~----------17--------------------------|
D|-----------------------------------17-19-20-----------------------------|
A|------------------------------------------------------------------------|
E|------------------------------------------------------------------------|

e|------------------------------------------------------------------------|
B|----------------------------------------------20b(22)\19b(21-21-21)-----|
G|--20p19p17-20p19p17--------19-20-------17-19----------------------------|
D|------------------------17-------19-20----------------------------------|
A|---------------------19-------------------------------------------------|
E|------------------------------------------------------------------------|
[ Tab from: http://www.guitaretab.com/t/trivium/66422.html ]
e|--------------------------13-------13-----15-----15------16------19-----|
B|--19b(21)-20-19-17--------15b(16)--15b(16)17b(18)17b(18)-18b(19)-21b(22)|
G|-------------------20-19~-----------------------------------------------|
D|------------------------------------------------------------------------|
A|------------------------------------------------------------------------|
E|------------------------------------------------------------------------|

e|--17-19-20-19-17--------------------------------------------------------|
B|-----------------19~------19b(20)---17------19--20b(21)-17-20b(22)~-----|
G|---------------------17-19-------19---19b(20)---------------------------|
D|------------------------------------------------------------------------|
A|------------------------------------------------------------------------|
E|------------------------------------------------------------------------|

e|------------------------------------------------------------------------|
B|-15-17-19b(21)-(FT22)-(21)rb19p17p15h17h19b(21)-(FT22)-(21)rb19p17p15---|
G|---------------------------------------------------------------------19~|
D|------------------------------------------------------------------------|
A|------------------------------------------------------------------------|
E|------------------------------------------------------------------------|

e|------------------------------------------------------------------------|
B|-19-17-15----17-15-------15---------------------------------------------|
G|----------19-------19-17----19-17-15-19-17-15---------------------------|
D|----------------------------------------------19~-----------------------|
A|--------------------------------------------------13\14-15-17-19-14~----|
E|------------------------------------------------------------------------|

Legend
*FT = finger tap
*rb = release bend
*b = bend note to the note in bracket
*\ = slide note to note


Related for My Hatred tab
Advertisement will be closed in 10 seconds