Song name
# A B C D E F G H I J K L M N O P Q R S T U V W X Y Z

Trixie Whitley - Id Rather Go Blind chords

--------------------|
---Trixie-----------|
------Whitley-------|
--------------------|
--Rather-be-blind---|
--------------------|
--------------------|

Just listen to the song, I've put the correct 'chords' that get repeated
in that order in verse/chorus/etc, and strum it accordingly

verse

-x---x-------x---|
-x---x-------x---|
-x---x-------x---|
-x---x-------7---|
-2---x-------x---|
-x---3--->---5---|


chorus

-x---x---x---x---|
-x---x---x---x---|
-x---x---x---x---|
-10--5---9---3---|
-x---x---x---x---|
-8---3---7---1---|



Ohoooh oooh ooh oooh

-x---x---x---|
-x---x---x---|
-x---x---x---|
-7---5---3---|
-x---x---x---|
-5---3---1---|



...a brother knows

-x---x---x---x-----|
-x---x---x---x-----|
-x---x---x---x-----|
-7---9---10--12----|
-x---x---x---x-----|
-5---7---8---10----| 

http://trixiewhitley.com/

http://www.youtube.com/watch?v=a_U7QLbJjBU&feature=related
Tap to rate this tab
# A B C D E F G H I J K L M N O P Q R S T U V W X Y Z