Song name
# A B C D E F G H I J K L M N O P Q R S T U V W X Y Z

Truckfighters - The New High tab

Artist: Truckfighters
Album: Mania
Song: The New High
Transcribed by: Nick
Tuning: Standard

Note:
1. Tabbed in E Standard tuning but the Truckfighters use Drop C# tuning, so I haven't 
bothered trying to tab this out in C# since I already started out with standard tuning, 
sounds ok to me, not perfect

2. Strumming pattern is just for guidance


Intro Riff (0:42)

 e|-----------------------------------|
 B|-----------------------------------|
 G|-----------------------------------|
 D|--11-11-11-11-11-11---11-11---7----|    x4
 A|--11-11-11-11-11-11---11-11---7----|
 E|--9--9--9--9--9--9----9--9----9----|


Verse (0:56)

 e|---------------------------------------|
 B|---------------------------------------|
 G|--9----------8----------7--------------|
 D|--9----------8----------7--------------|    x11
 A|--7--777777--6--666666--5--555555------|
 E|-----777777-----666666-----555555------|

 e|---------------------------------------|
 B|---------------------------------------|
 G|--9----------11----------13------------|
 D|--9----------11----------13------------|
 A|--7--777777--9--999999---11-11---------|
 E|-----777777-----999999------11---------|



Bridge (1:43)

 e|-----------------------------------|
 B|-----------------------------------|
 G|-----------------------------------|
 D|--666666--66--9---66666--5--4--0---|
 A|--666666--66--9---66666--5--4--0---|
 E|--444444--44--7---44444--3--2--0---|


Chorus I (1:50)

 e|-------------------------------------------|
 B|-------------------------------------------|
 G|-------------------------------------------|
 D|--11--11-11-11--14--13--12----7777--9999---|
 A|--11--11-11-11--14--13--12----7777--9999---|
 E|--9---9--9--9---12--11--10----5555--7777---|


 e|-------------------------------------------|
 B|-------------------------------------------|
 G|-------------------------------------------|
 D|--11--11-11-11--14--13--12----7777---------|
 A|--11--11-11-11--14--13--12----7777--2222---|
 E|--9---9--9--9---12--11--10----5555--0000---|


Chorus II (2:04)

 e|-------------------------------------------|
 B|-------------------------------------------|
 G|-------------------------------------------|
 D|----------2---444444-----9---777777777777--|
 A|--222222--2---444444-----9---777777777777--|
 E|--000000-----------------------------------|



[Verse]
[Intro Riff]
[Chorus I and II]
[Solo]
[Chorus I]

[Outro] - variations of

 e|------------------------------------------|
 B|------------------------------------------|
 G|------------------------------------------|
 D|--11-11---11------11-11-11---11-----------|
 A|--11-11---11------11-11-11---11-----------|
 E|--9--9----9-------9--9--9----9------------|
Tap to rate this tab
# A B C D E F G H I J K L M N O P Q R S T U V W X Y Z