Song name
# A B C D E F G H I J K L M N O P Q R S T U V W X Y Z

Trust Foundation - Picture Book tab

Tabbed by: Theis Kristensen (theis_superman@hotmail.com)

Artist: Trust Foundation
Album:  The Pindrop (1999)
Song:   Picture Book
Tuning: Standard tuning


Verse:
   D5                    G5
e|-------------------------------------------
B|-------------------------------------------
G|-7-----------------------------------------  X2
D|-7---------------------5-------------------
A|-5---------------------5-------------------
E|-----------------------3-------------------
  
  Got good minds and bad health, and I think you that...

   Em          G5                    D5
e|-------------------------------------------
B|-------------------------------------------
G|-----------------------------------7-------  X2
D|-2-----------5---------------------7-------
A|-2-----------5---------------------5-------
E|-0-----------3-----------------------------

  Drinkin' and style like a laughing stock...


Chorus:
   D5  A5  H5  A5          D5  A5  D5
e|-------------------------------------------
B|-------------------------------------------
G|-7-----------------------7-------7---------  x2
D|-7---7---9---7-----------7---7---7---------
A|-5---7---9---7-----------5---7---5---------
E|-----5---7---5---------------5-------------


End:

e|-------------------------------------------
B|-------------------------------------------
G|-------------------------------------------  
D|-7---6---5---4-----------------------------
A|-5---5---5---5-----------------------------
E|-------------------------------------------


Listen to the song to figure out the rytme (it's quite simple...).
Any comments, please e-mail me at the address in top.
Tap to rate this tab
# A B C D E F G H I J K L M N O P Q R S T U V W X Y Z