Song name
# A B C D E F G H I J K L M N O P Q R S T U V W X Y Z

Tryo - La Main Verte tab

Intro :
|--------------------9p7----------|---------------------------------|
|-----7------9p7-----------7-7h9p7|----10s9-7-----------5------7p5--|
|---------------------------------|-----9---9-----------------------|
|s9-------9-------9-------9-------|-9---9---9----5s7--------7-------|
|---------------------------------|---7-----------------------------|
|---------------------------------|---------------------------------|

|--------------------9p7----------|-------------5-------------------|
|-----7------9p7-----------7-7h9p7|----10s9-7---5-------------------|
|---------------------------------|-----9---9---6-------------------|
|s9-------9-------9-------9-------|-9---9---9---7-------------------|
|---------------------------------|---7---------7-------------------|
|---------------------------------|-------------5-------------------|


Accords:
B     - 799877
Esus4 - x78897
A     - 577655



        B                    B
J'ai compris en fumant que fumer, c'est de l'argent
            Esus4       A
Et que j'en donne à des gens
      B                     B
Qui allégrement, amassent des bagues en diamant
               D         E
Sur le dos de pauvres paysans
Tap to rate this tab
 
# A B C D E F G H I J K L M N O P Q R S T U V W X Y Z