Song name
# A B C D E F G H I J K L M N O P Q R S T U V W X Y Z

Tsuji Ayano - Kokoro Wa Kimi No Moto He tab

---------------------------------------------------------------------------
		Kokoro Wa Kimi No Moto He - Tsuji Ayano
---------------------------------------------------------------------------
Tabbed by: maguri
Tuning: Standard

Tsuji Ayano
Kokoro Wa Kimi No Moto He (2001)


---------------------------------------------------------------------------

INTRO (melody)

  C       D7       F       C        C       D7       F(add9)
e|----------------|----------------|----------------|------3---------|
B|----1-------1---|----1-------1---|----1-------1---|----1-----------|
G|--0---0---2---2-|--0---0---0---0-|--0---0---2---2-|--0-------------|
D|2-------4-------|3-------2-------|2-------4-------|3---------------|
A|----------------|----------------|----------------|----------------|
E|----------------|----------------|----------------|----------------|
(guitar 2)
e|--3---5---------|----------------|--3---5---------|----------------|
B|5---------5---3-|---3-5------3---|5---------5---3-|----------------|
G|----------------|5---------5---5-|----------------|--5---5---------|
D|----------------|----------------|----------------|----------------|
A|----------------|----------------|----------------|----------------|
E|----------------|----------------|----------------|----------------|

INTRO (verse)
 C       D7       F       C        C       D7       F       C
e|----------------|----------------|----------------|----------------|
B|----1-------1---|----1-------1---|----1-------1---|----1-------1---|
G|--0---0---2---2-|--0---0---0---0-|--0---0---2---2-|--0---0---0---0-|
D|2-------4-------|3-------2-------|2-------4-------|3-------2-------|
A|----------------|----------------|----------------|----------------|
E|----------------|----------------|----------------|----------------|


VERSE 1 + 3
  C       D7       F       C        C       D7       F       C
e|----------------|----------------|----------------|----------------|
B|----1-------1---|----1-------1---|----1-------1---|----1-------1---|
G|--0---0---2---2-|--0---0---0---0-|--0---0---2---2-|--0---0---0---0-|
D|2-------4-------|3-------2-------|2-------4-------|3-------2-------|
A|----------------|----------------|----------------|----------------|
E|----------------|----------------|----------------|----------------|
  F(add9)          C                F(add9)          G
e|------3---------|------3---------|------3---------|----------------|
B|----1-----------|----1-----------|----1---------1-|--3-1-0---------|
G|--0-------------|--0-------------|--0-------------|------------0---|
D|3---------------|2---------------|3-------------2-|--3-2-0---------|
A|----------------|----------------|----------------|---------/3-2---|
E|----------------|----------------|----------------|----------------|

VERSE 2 + 4
  C       D7       F       C        C       D7       F       C
e|----------------|----------------|----------------|----------------|
B|----1-------1---|----1-------1---|----1-------1---|----1-------1---|
G|--0---0---2---2-|--0---0---0---0-|--0---0---2---2-|--0---0---0---0-|
D|2-------4-------|3-------2-------|2-------4-------|3-------2-------|
A|----------------|----------------|----------------|----------------|
E|----------------|----------------|----------------|----------------|
  F(add9)          C       Am7      F(add9)          Fm(add9)
e|------3---------|------3---------|------3---------|------3---------|
B|----1-----------|----1-----------|----1-----------|----1-----------|
G|--0-------------|--0-------------|--0-------------|--1-------------|
D|3---------------|2---------------|3---------------|3---------------|
A|----------------|--------0-------|----------------|----------------|
E|----------------|----------------|----------------|----------------|
  G       G/F      G/E     G/D
e|3-----3-3-----3-|3-----3-3-------|
B|--3-------3-----|--3-------3-----|
G|----0-------0---|----0-------0---|
D|--------3-------|2-------0-------|
A|----------------|----------------|
E|----------------|----------------|


---------------------------------------------------------------------------

INTRO
| C D7 | F C | C D7 | F(add9) |
| C D7 | F C | C | D7 | F C |

C   D7  F    C
  mamorareteita
C   D7   F       C
  sono toki made wa
  F(add9)       C
kitto mata modotte kureruto
   F(add9)  G(sus4)G
shinjite matte    ita

C  D7   F     C
  usoga jouzu na 
C  D7     F   C
  kimi no kotoba
  F(add9)    C       Am
kitto mata waratte kureru to
   F(add9)Fm(add9)  G  G/F  G/E  G/D
shinjite matte ita, oooh


      C    F   G     C
kitto yume wa hakanaudarou
    C F   G        E
aoi aoi sora no shita
     Am             D7
tsunagatte yuku hirogatte yuku
       F         G    [C]
kokoro wa kimi nomoto he


INTRO
| C D7 | F C | C | D7 | F C |


C  D7   F     C
  ushinawa te ita [?]
C   D7   F       C
  sono toki boku wa
  F(add9)      C
kitto mata wasurerarenai to
  F(add9)G(sus4)G
kanjitenaiteita

C  D7  F     C
  usodekatameta 
C   D7    F     C
  yoru no hoshi wa
  F(add9)     C      Am
kittomata hanare rarenaito
  F(add9)Fm(add9)G  G/F  G/E  G/D
kanjitenaiteita, uuuh

      C    F    G     C
kitto kimi wa konai darou
      C   F   G        E
kurai kurai sora no shita
    Am            D7
kuzurete yuku kowarete yuku
       F          G    C
kokoro wa kimi no hate ni


SOLO
| C F | G C | C F | G C |
| C F | G Am | Am F | G |


      C    F   G    C
kitto boku wa utaudarou
     C  F   G        E
tooi tooi sora no shita
    Am            D7
nagarete yuku afurete yuku
       F            G 
kokoro woi daite aruite yuku
      C      F   G    C
kitto yumewa hakanaudarou
    C F   G        E
aoi aoi sora no shita
     Am             D7
tsunagatte yuku hirogatte yuku
       F         G    C   C7
kokoro wa kimi nomoto he
       F         G    [C]
kokoro wa kimi nomoto he

OUTRO
| C D7 | F C | C D7 | F C |
| C D7 | F C | C D7 | F C |
 (melody)     (tacet)
| C D7 | F C | C D7 | F C |
(melody)     (tacet)

---------------------------------------------------------------------------
Tap to rate this tab
 
# A B C D E F G H I J K L M N O P Q R S T U V W X Y Z