Song name
# A B C D E F G H I J K L M N O P Q R S T U V W X Y Z

Tulus - Tuan Nona Kesepian chords

Highlighted       Show chord diagrams
-------------------------------------------------------------------------------
                          TUAN NONA KESEPIAN - Tulus
-------------------------------------------------------------------------------
Tabbed by:ndermawan
E-mail:ndermawan@yahoo.com


Reference video: http://www.youtube.com/watch?v=LdQuBsOnj6Q&list=PLC30328E3307B98C3

2014

Tuning: Standard


Chords used:

A D G or their (maj7) versions

F#m Em7 F F7



Intro/Lick                part before Verse: A D G A X2
----------
                                 A               D                 G then
                                                                     back to A  

e|------------------------|-------0--------------2--4--2---2--------------------|
B|--------3/5\3--2--0-----|----2--2--2---2-------2--2--2---2----------3---------|
G|-----2---------------2--|----2--2--2---2-------2--2--2---2-------4--4--4---4--|
D|--4---------------------|----2-----2---2----0-----0----0---------5--5--5---5--|
A|------------------------|-0-----0----0---------------------------5-----5---5--|
E|------------------------|-------------------------------------3-----3----3----|


Verse
-----
A         D       G        A
Tuan kesepian, tak punya teman
A         D       G             A     Lick
Hatinya rapuh, tapi berlagak tangguh
A         D           G                 A
Nona tak berkawan, tak pernah rasakan cinta
A                  D       G            A
Sungguh pandai berkhayal, mimpi itu alamnya


Prechorus
---------
F#m              Em7      Gmaj7        Amaj7 <- better sounding if barre 5              
Mereka berdua bertemu di satu sudut taman kota
F#m              Em7      Gmaj7 (staccato)
Berkata tapi tak bicara, masing-masingnya menganalisa



Bass lick after "menganalisa"
e|----------------------------------------|
B|----------------back--------------------|
G|-----------------to---------------------|
D|---------------A Chord Verse------------|
A|----------------------------------------|
E|--/5----4--2--0-------------------------|


CHORUS
-------
(nona berkata)
Amaj7                 G7
Tuan apa yang salah padamu
F7                    Amaj7 (on 5th)
Mengapa wajahmu ada seribu
Amaj7                 G7
Tuan apa yang salah padamu
F7                   Amaj7 <- switch between open and 2nd fret on b string
Seakan dunia hanya kamu, kamu, kamu, kamu

(tuan berkata)
Amaj7                G7
Nona apa yang salah padamu
        F7                 Amaj7
Apa enaknya tenggelam dalam khayal
Amaj7                 G7
Nona apa yang salah padamu
F               F               Fx7 then G    
Kau tahu ku tak punya hati
F                 G    
Kau masih saja menanti


Instrumental/break same as intro chords then back to Chorus

Bridge
------
G                       A
Mereka terlarut dalam ego
G                           A
Hati tertutup terdengar kataku
G                    A
Berkata tapi tak berkaca
G                         A
Semua orang hanya angin lalu

G                       A
Nona jatuh cinta pada tuan
G                    A
Tuan menunggu yang lain
G                       A
Nona tak peduli walau Tuan
G                       A
tak pernah peduli sekitarnya



Instrumental/bass solo then fin.



Ending lick improv            Amaj7

e|-----------------------------0----------------|
B|-----0--1--3-3/5\3--1--0-----2---let ring-----|
G|--2-----------------------2--1----------------|
D|-----------------------------2----------------|
A|-----------------------------0----------------|
E|----------------------------------------------|


************************************

| /   slide up
| \   slide down
| h   hammer-on
| p   pull-off
| ~   vibrato
| +   harmonic
| x   Mute note
| b   Bend
| pb  Pre-bend
| br  Bend release
| pbr Pre-bend release
| brb Bend release bend

************************************
Tap to rate this tab
# A B C D E F G H I J K L M N O P Q R S T U V W X Y Z