Song name
# A B C D E F G H I J K L M N O P Q R S T U V W X Y Z

Tumbledown - Dead Man Walking tab

Artist: Tumbledown
Song: Dead Man Walking
Album: Empty Bottle
Tuning: Standard

     Em            G               Am             C
   EADGBe        EADGBe          EADGBe         EADGBe
   022000        320002          x02210         x32010

e|--------------------------------------------------------------------------|
B|--------------------------------------------------------------------------|
G|--------------------------------------------------------------------------|
D|-------------------------------------------------------0-1-2-------0------|
A|------2---2---2------2---2---2------2---2---2----0-1-2-------0h1h2--------|
E|-3^-0---0---0---3^-0---0---0---3^-0---0---0---3^--------------------------|

e|-----------------|
B|-----------------|
G|-----------------|
D|-----------------|
A|---2---2---2---2-|
E|-0---0---3---3---|

Em                                             G
Don't you think I haven't tried every which way out
Em                                                  G
I smell the wreckage down the road I see the burnin house
           Am  C
And I want out it's burnin down and I want out

(Between the Am and C chords is a walk-up A|-0-2-| The 3 lands on the C for the C chord)

e|----------------------------------|
B|----------------------------------|
G|----------------------------------|
D|----------------------------------|
A|------2---2---2------2---2---2----|
E|-3^-0---0---0---3^-0---0---0---3^-|


Em                                                 G
My ship was going down right when I saw two planes collide
Em                                                     G
The explosion made a boomin sound that no one could survive
        Am    C
But I'm alive my body's numb, but I'm alive

(Same walk-up between the Am and C)

e|-------------------------------------|
B|-------------------------------------|
G|-------------------------------------|
D|-------------------------------------|
A|------2---2---2------2---2---2-------|
E|-3^-0---0---0---3^-0---0---0---0-2---|

      G                     Am
I'm a dead man walking on a trail gone cold
      Em                               C
Still searchin for the answers I don't need to be told
      G                     Am                    C      D
I'm a dead man walking on a trail that's grown so cold


e|--------------------------------------------------------------------------|
B|--------------------------------------------------------------------------|
G|--------------------------------------------------------------------------|
D|-------------------------------------------------------0-1-2-------0------|
A|------2---2---2------2---2---2------2---2---2----0-1-2-------0h1h2--------|
E|-3^-0---0---0---3^-0---0---0---3^-0---0---0---3^--------------------------|

e|-----------------|
B|-----------------|
G|-----------------|
D|-----------------|
A|---2---2---2---2-|
E|-0---0---3---3---|

Em
I'm through facin facts in fact I've got no face at all
G  Em
If I still had fingers I'd be givin you a call
            Am  C
Cuz I'm all out four three two one and I'm all out

e|-------------------------------------|
B|-------------------------------------|
G|-------------------------------------|
D|-------------------------------------|
A|------2---2---2------2---2---2-------|
E|-3^-0---0---0---3^-0---0---0---0-2---|

      G                     Am
I'm a dead man walking on a trail gone cold
      Em                               C
Still searchin for the answers I don't need to be told
      G                     Am                    C      D
I'm a dead man walking on a trail that's grown so cold


e|-----------------------------------------------------|
B|-----------------------------------------------------|
G|-----------------------------------------------------|
D|-----------------------------------------------------|
A|------2---2---2------2---2---2------2---2---2----2---|
E|-3^-0---0---0---3^-0---0---0---3^-0---0---0---3^-0---|
Tap to rate this tab
 
# A B C D E F G H I J K L M N O P Q R S T U V W X Y Z