Song name
# A B C D E F G H I J K L M N O P Q R S T U V W X Y Z

Turnpike Troubadours - Solid Ground chords

Highlighted       Show chord diagrams
CHORD PATTERNS
--------------
A       x02220
D       xx0232
E       022100
--------------

 
  A                   D        A         A                    E
-|-------------------|------------------|-------------------|---------------|-
-|-------------------|------------------|-------------------|---------------|-
-|------9------------|-7-6-7-9----------|------9------------|---------------|-
-|-9-11-----11-9-7---|---------11---9-7-|-9-11-----11-9-7---|-9-------------|-
-|-------------------|------------------|-------------------|--------7------|-
-|-------------------|------------------|-------------------|---------------|-

  A                   D        A          A        E         A
-|-------------------|------------------|-------------------|---------------|-
-|-------------------|------------------|-------------------|---------------|-
-|------9------------|-7-6-7-9----------|------9---7--------|---------------|-
-|-9-11-----11-9-7---|---------11---9-7-|-9-11-------11-9---|-7-------------|-
-|-------------------|------------------|-------------------|---------------|-
-|-------------------|------------------|-------------------|---------------|-

          A                       D               A                           E
It's been pouring down rain on my old windshield, would seem like three whole days
    A                          D         A                     E          A
And I've been thinking about a brand new life, 'cause this one sure don't pay
      A                     D                 A                       E
Spending too much time on the telephone, just looking' for a place to play
    A                     D           A             E    A
And I'm bound to run on a pieces like home, here on this highway

       D  A                  E       D
But my mind has gone without me
           A           E
To where I lay my burdens down
            D             A
And I'll be standing on a rock
       D                   A
On the banks of the glover river
                   E 
Closest thing I've known to solid ground

  A                   D        A         A                    E
-|-------------------|------------------|-------------------|---------------|-
-|-------------------|------------------|-------------------|---------------|-
-|------9------------|-7-6-7-9----------|------9------------|---------------|-
-|-9-11-----11-9-7---|---------11---9-7-|-9-11-----11-9-7---|-9-------------|-
-|-------------------|------------------|-------------------|--------7------|-
-|-------------------|------------------|-------------------|---------------|-

  A                   D        A          A        E         A
-|-------------------|------------------|-------------------|---------------|-
-|-------------------|------------------|-------------------|---------------|-
-|------9------------|-7-6-7-9----------|------9---7--------|---------------|-
-|-9-11-----11-9-7---|---------11---9-7-|-9-11-------11-9---|-7-------------|-
-|-------------------|------------------|-------------------|---------------|-
-|-------------------|------------------|-------------------|---------------|-

          A                        D        A                            E
Been seeing your face at different types of places in the rearview of my mind
    A                  D           A                   E         A
And sights 20-20 but I can't count how many times that I've gone blind
          E                         D             A              E
Leaves me feeling kind a heavy like all my levy's just abound to break
         E                      D                          A           E           A
And it's damn poor weather, but I'm holding together, lord there's too much at stake

       D  A                  E       D
But my mind has gone without me
           A           E
To where I lay my burdens down
            D             A
And I'll be standing on a rock
       D            A
On the banks of the glover river
                   E 
Closest thing I've known to solid ground

  A                   D        A         A                    E
-|-------------------|------------------|-------------------|---------------|-
-|-------------------|------------------|-------------------|---------------|-
-|------9------------|-7-6-7-9----------|------9------------|---------------|-
-|-9-11-----11-9-7---|---------11---9-7-|-9-11-----11-9-7---|-9-------------|-
-|-------------------|------------------|-------------------|--------7------|-
-|-------------------|------------------|-------------------|---------------|-

  A                   D        A          A        E         A
-|-------------------|------------------|-------------------|---------------|-
-|-------------------|------------------|-------------------|---------------|-
-|------9------------|-7-6-7-9----------|------9---7--------|---------------|-
-|-9-11-----11-9-7---|---------11---9-7-|-9-11-------11-9---|-7-------------|-
-|-------------------|------------------|-------------------|---------------|-
-|-------------------|------------------|-------------------|---------------|-

         A                  D      A                       E    
And I'll be southbound, and headed down, tomorrow at first light
         A              D        A                        E   A
Now I'll be dreaming at when I'm leaving they can kiss my ass goodbye
          E                         D             A              E
Leaves me feeling kind a heavy like all my levy's just abound to break
         E                      D                          A           E           A
And it's damn poor weather, but I'm holding together, lord there's too much at stake


       D  A                  E       D
But my mind has gone without me
           A           E
To where I lay my burdens down
            D             A
And I'll be standing on a rock
       D            A
On the banks of the glover river
                   E 
Closest thing I've known to solid ground

  A                   D        A         A                    E
-|-------------------|------------------|-------------------|---------------|-
-|-------------------|------------------|-------------------|---------------|-
-|------9------------|-7-6-7-9----------|------9------------|---------------|-
-|-9-11-----11-9-7---|---------11---9-7-|-9-11-----11-9-7---|-9-------------|-
-|-------------------|------------------|-------------------|--------7------|-
-|-------------------|------------------|-------------------|---------------|-

  A                   D        A          A        E         A
-|-------------------|------------------|-------------------|---------------|-
-|-------------------|------------------|-------------------|---------------|-
-|------9------------|-7-6-7-9----------|------9---7--------|---------------|-
-|-9-11-----11-9-7---|---------11---9-7-|-9-11-------11-9---|-7-------------|-
-|-------------------|------------------|-------------------|---------------|-
-|-------------------|------------------|-------------------|---------------|-
Tap to rate this tab
 
# A B C D E F G H I J K L M N O P Q R S T U V W X Y Z