Song name
# A B C D E F G H I J K L M N O P Q R S T U V W X Y Z

Twelve Foot Ninja - Fear tab

Tuning: Drop D

h = hammer on

This is my first tab and I  just figured out the intro.. Let me know what you think.


E |---------------2------2--------------------------------------------------|
B |---------------3---------3---------------------3--3----------------------|
G |---------------2-----------2-------------------2----0h2------------------|
D |-0----0----------------------------------------0-------------------------|
A |-0----0------------------------------------------------------------------|
D |-0----0---------------------------3----3---------------------------------|

E |-------------------------------------------------------------------------|
B |-------------3--3-----------------------3--3---------------------------- |
G |-------------2----0h2-------------------2----0h2-------------------------|
D |-------------0--------------------------0--------------------------------|
A |-------------------------------------------------------------------------|
D |-2----2---------------------1----1---------------------------------------|

http://www.twelvefootninja.com/

^--Link to the band's website.
Tap to rate this tab
 
# A B C D E F G H I J K L M N O P Q R S T U V W X Y Z