Song name
# A B C D E F G H I J K L M N O P Q R S T U V W X Y Z

Twenty Inch Burial - History Repeating tab

Intro 7x
e|--------------------------------------------------------------|
B|--------------------------------------------------------------|  
G|--------------------------------------------------------------|
D|--------------------------------------------------------------|
A|--------5----7------------------------------------------------|  
D|-00-7-0---00--0-7-00-5-0-3------------------------------------|

Pre-Verse 1x
e|--------------------------------------------------------------|
B|--------------------------------------------------------------|  
G|--------------------------------------------------------------|
D|--------------------------------------------------------------|
A|--2-5-8-7-5-7-------------------------------------------------|  
D|--0-3-6-5-3-5-------------------------------------------------|
            . . 
Verse 2x
e|--------------------------------------------------------------|
B|--------------------------------------------------------------|  
G|--------------------------------------------------------------|
D|--99999-55555-7777--------------------------------------------|
A|--99999-55555-7777--10-9-7-9-7--------------------------------|  
D|--77777-33333-5555--------------------------------------------|

Verse 2x
e|--------------------------------------------------------------|
B|--------------------------------------------------------------|  
G|--------------------------------------------------------------|
D|--99999-55555-7777--------------------------------------------|
A|--99999-55555-7777--------------------------------------------|  
D|--77777-33333-5555--------------------------------------------|

Verse(Second Guitar) 2x 
e|--------------------------------------------------------------|
B|--------------------------------------------------------------|  
G|--1111111111-99999-1111111111-12121412------------------------|
D|--x x x x x--xxxxx-x x x x x--x-x-x-x-------------------------|
A|--9 9 9 9 9--77777-9 9 9 9 9--10101210------------------------|  
D|--------------------------------------------------------------|
 4x
e|--------------------------------------------------------------|
B|--------------------------------------------------------------|  
G|--------------------------------------------------------------|
D|--------------------------------------------------------------|
A|--------5----7------------------------------------------------|  
D|-00-7-0---00--0-7-00-5-0-3------------------------------------|

Verse 2x
e|--------------------------------------------------------------|
B|--------------------------------------------------------------|  
G|--------------------------------------------------------------|
D|--99999-55555-7777--------------------------------------------|
A|--99999-55555-7777--10-9-7-9-7--------------------------------|  
D|--77777-33333-5555--------------------------------------------|

Verse 2x
e|--------------------------------------------------------------|
B|--------------------------------------------------------------|  
G|--------------------------------------------------------------|
D|--99999-55555-7777--------------------------------------------|
A|--99999-55555-7777--------------------------------------------|  
D|--77777-33333-5555--------------------------------------------|

Verse(Second Guitar) 2x 
e|--------------------------------------------------------------|
B|--------------------------------------------------------------|  
G|--1111111111-99999-1111111111-12121412------------------------|
D|--x x x x x--xxxxx-x x x x x--x-x-x-x-------------------------|
A|--9 9 9 9 9--77777-9 9 9 9 9--10101210------------------------|  
D|--------------------------------------------------------------|

Chorus 4x
e|--------------------------------------------------------------|
B|--------------------------------------------------------------|  
G|--------------------------------------------------------------|
D|--99999-555555-777777777777-----------------------------------|
A|--77777-333333-555555555555-----------------------------------|  
D|--77777-333333-555555555555-----------------------------------|

Chorus(Second Guitar) 4x
e|--------------------------------------------------------------|
B|--------------------------------------------------------------|  
G|--------------------------------------------------------------|
D|-2-4-5-4-2-4-5-4-0-2-4-5-4-2-4-5/7----------------------------|
A|--------------------------------------------------------------|  
D|--------------------------------------------------------------|
Tap to rate this tab
# A B C D E F G H I J K L M N O P Q R S T U V W X Y Z