Song name
# A B C D E F G H I J K L M N O P Q R S T U V W X Y Z

Twenty One Pilots - Holding On To You tab

This is a really fun song to play, Twenty One pilots is an awesome band.
This is what I came up with after listening to the song.
This song is played mostly on the electric piano but sounds very good played on the 
guitar as well.

Let me know if I missed anything at Hotcakes855@gmail.com

Enjoy.

Intro/Verse  x8:

I'm taking over my body, back in control...
e|---------------------------------------|
B|-2-2-2-2--2-2-2-2--4-4-4-4--2-2-2-2----|
G|-4-4-4-4--4-4-4-4--4-4-4-4--4-4-4-4----|   plays as intro and during verse
D|-4-4-4-4--4-4-4-4--4-4-4-4--4-4-4-4----|
A|----------------------------2-2-2-2----|
E|-4-4-4-4--2-2-2-2--0-0-0-0-------------|


Synth thing (played on the 7th repeat of verse section):
|-------------------------------|
|-7-----------------7-----------|
|---6-8---------8-6----8-6-4----|      played with the intro part
|--------8-6-4------------------|
|-------------------------------|
|-------------------------------|


Chorus:

E       G#m           B       F#    C#m
You are surrounding, all my surroundings

E                 G#m             B     F#   C#m
Sounding down the mountain range, of my left-side brain

E       G#m           B       F#    C#m
You are surrounding, all my surroundings

E              G#m        B       F#
Twisting the kaleidoscopic behind both of my eyes.


Verse:

Remember the moment...
e|---------------------------------------|
B|-2-2-2-2--2-2-2-2--4-4-4-4--2-2-2-2----|
G|-4-4-4-4--4-4-4-4--4-4-4-4--4-4-4-4----|   plays as intro and during verse
D|-4-4-4-4--4-4-4-4--4-4-4-4--4-4-4-4----|
A|----------------------------2-2-2-2----|
E|-4-4-4-4--2-2-2-2--0-0-0-0-------------|


Bridge:

   G#m              B/A#             B                E
e|--------------------------------------------------------------------|
B|--------------------------------------------------------------------|
G|--------------------------------------------------------------------|
D|-----6---6---6--------8---8---8--------9---9---9--------2---2---2---|
A|---6---6---6---6----9---9---9---9----9---9---9---9----2---2---2---2-|
E|-4----------------6----------------7----------------0---------------|

As the bridge progresses, increase intensity and slowly start to strum the chords above 
each section in place of the notes.

After the bridge is a synth solo.  During which you can strum the chords

Post-bridge:

G#m                        F#
Lean with it rock with it, when we gunna stop with it,

E                        B
Lyrics that mean nothing we were gifted with thought.

G#m                               F#
Is it time to move our feet, to an introspective beat?

              E                                 B
It ain't the speakers that bump hearts, its our hearts that make the beat.


Plays the intro part again:


   And I'll be holding on to you
e|---------------------------------------|
B|-2-2-2-2--2-2-2-2--4-4-4-4--2-2-2-2----|
G|-4-4-4-4--4-4-4-4--4-4-4-4--4-4-4-4----|   plays as intro and during verse
D|-4-4-4-4--4-4-4-4--4-4-4-4--4-4-4-4----|
A|----------------------------2-2-2-2----|
E|-4-4-4-4--2-2-2-2--0-0-0-0-------------|
Tap to rate this tab
# A B C D E F G H I J K L M N O P Q R S T U V W X Y Z