Song name
# A B C D E F G H I J K L M N O P Q R S T U V W X Y Z

Twenty One Pilots - Trees tab

Standard Tuning

Intro/Verse
e-----------------------------------------------------------------|
b---7---7---7---7---7---7---7---7---7---7---7---7---7---7---7---7-|
g-8---8---8---8---------------------------------------------------|
d-----------------9---9---9---9-----------------------------------|
a---------------------------------9---9---9---9---9---9---9---9---|
e-----------------------------------------------------------------|

Piano Bit
e-------9-6----------------------------------|
b---7-9------------------------------9----11-|
g-8------------------11----------------11----|
d---------------8-11----11------11-----------|
a-------------9---------------9----9---------|
e--------------------------------------------|

Chorus
e--6---6---6---6---7---7---7---7---6---6---6---6----9----9----9----9--|
b--7---7---7---7---7---7---7---7---7---7---7---7---11---11---11---11--|
g--6---6---6---6---8---8---8---8---6---6---6---6---11---11---11---11--|
d-(8)-(8)-(8)-(8)-(9)-(9)-(9)-(9)-(8)-(8)-(8)-(8)-(11)-(11)-(11)-(11)-|
a---------------------------------------------------------------------|
e---------------------------------------------------------------------|

e--6---6---6---6---7---7---7---7---6---6---6---6---4---4---4---4--|
b--7---7---7---7---7---7---7---7---7---7---7---7---6---6---6---6--|
g--6---6---6---6---8---8---8---8---6---6---6---6---6---6---6---6--|
d-(8)-(8)-(8)-(8)-(9)-(9)-(9)-(9)-(8)-(8)-(8)-(8)-(6)-(6)-(6)-(6)-|
a-----------------------------------------------------------------|
e-----------------------------------------------------------------|

Post-Chorus/Bridge
(You can either play the version in the intro/verse but if you want to get the extra
high notes the synth plays, this version is easier for that part.  Listen for timing.)
e---------------------------------------------------------------------------------------|
b-----------------------------------------11--------------------------------------11----|
g----11----11----11----11---11---11----13-------11---11---11---11---11---11----13----13-|
d-13----13----13----13----9----9--------------------------------------------------------|
a---------------------------------------------9----9----9----9----9----9----------------|
e---------------------------------------------------------------------------------------|

e------------------------------------------------------------------------------------14-|
b-----------------------------------------11--------------------------------------11----|
g----11----11----11----11---11---11----13-------11---11---11---11---11---11----13-------|
d-13----13----13----13----9----9--------------------------------------------------------|
a---------------------------------------------9----9----9----9----9----9----------------|
e---------------------------------------------------------------------------------------|

2nd Verse
Heavy synth/rhythm guitar.  (Can play this in rhythm for post-chorus/bridge part and 
wherever you see fit.)
e--------------------------------------|
b--------------------------------------|
g-8~--8----4~--4-----------------------|
d-8~--8----4~--4----4~--4----4~--4-----|
a-6~--6----2~--2----4~--4----4~--4-----|
e-6~--6----2~--2----2~--2----2~--2-----|
Tap to rate this tab
# A B C D E F G H I J K L M N O P Q R S T U V W X Y Z