Song name
# A B C D E F G H I J K L M N O P Q R S T U V W X Y Z

Twilight - Bellas Lullaby tab

e|| |-2-------2-------3-------3-------|-2-------2-------0-------0-------|
B|| |-3-------3-------3-------3-------|-3-------3-------3-------3-------|
G||4|-2-------2-------3-------3-------|-2-------2-------0-------0-------|
D||4|-----0-------0-------0-------0---|-----0-------0-------0-------0---|
A|| |---------------------------------|---------------------------------|
E|| |---------------------------------|---------------------------------|


e||-2-------2-------3-------3-------|-5-------5-------3-------3-------|
B||-3-------3-------3-------3-------|-3-------3-------3-------3-------|
G||-2-------2-------3-------3-------|-5-------5-------3-------3-------|
D||-----0-------0-------0-------0---|-----0-------0-------0-------0---|
A||---------------------------------|---------------------------------|
E||---------------------------------|---------------------------------|


e||-2-------2-------3-------2---0---|-2-------2-------3-------3-------|
B||-3-------3-------3---------------|-3-------3-------3-------3-------|
G||-2-------2-------3---------------|-5-------5-------3-------3-------|
D||-----0-------0-------0-------0---|-----0-------0-------0-------0---|
A||---------------------------------|---------------------------------|
E||---------------------------------|---------------------------------|


e||-2-------2-------0-------0-------|-0-------0-----------------------|
B||-3-------3-------3-------3-------|-----------------3-------3-------|
G||-0-------0-------0-------0-------|-0-------0-------0-------0-------|
D||---------------------------------|---------------------------------|
A||-----3-------3-------3-------3---|---------------------------------|
E||---------------------------------|-----1-------1-------1-------3---|


e||---------------------------------|---------------------------------||
B||-5--3--0---------5--3--0---------|-5--3--0---------5--3--2---------||
G||-4-------2-------4-------2-------|-4-------2-------4-------2-------||
D||---------------------------------|---------------------------------||
A||-0-----------0---0---------------|-0-----------0---0---------------||
E||-----------------------------3---|-----------------------------3---||

e|| |-----6---5---3-----------3-------|---------------------------------|
B|| |-----------------5---3-----------|-------------------------0---1---|
G||4|-4-----------2---------------4---|-2-------------------------------|
D||4|-2-----------2-------------------|-2-----------2-------------------|
A|| |-0-----------0-------------------|-0-----------0-------------------|
E|| |---------------------------------|---------------------------------|



e||---------------------------------|---------------------------------|
B||---------------------------------|-0-------------------------------|
G||-0-----------0-----------0---2---|-------------2-------------------|
D||-0-----------2-------------------|-2-----------2-------------------|
A||-3-----------3-------------------|-0-----------0-------------------|
E||---------------------------------|---------------------------------|


e||-----6---5---3-----------3-------|---------------------------------|
B||-----------------5---3-----------|-------------------------0---1---|
G||-4-----------2---------------4---|-2-------------------------------|
D||-2-----------2-------------------|-2-----------2-------------------|
A||-0-----------0-------------------|-0-----------0-------------------|
E||---------------------------------|---------------------------------|



e||---------2---3-------------------|---------3---5---------------7---|
B||-------------------------4---5---|---------------------8---10------|
G||-0-----------0-------------------|-4-----------2-------------------|
D||-0-----------2-------------------|-2-----------2-------------------|
A||-3-----------3-------------------|-0-----------0-------------------|
E||---------------------------------|---------------------------------|



e||-----14------7---------------0---|-----14------7---------------7---|
B||---------------------8---7-------|---------------------7---8-------|
G||-0-----------0-------------------|-0-----------0-------------------|
D||-0-----------0-------------------|---------------------------------|
A||---------------------------------|---------------------------------|
E||---------------------------------|-8-----------8-------------------|



e||-----14--12-10------8---7---5---|-----3---2-----------------------|
B||---------------------------------|-------------3-----------0-------|
G||-0-----------0-------------------|-0-----------0-------------------|
D||-0-----------0-------------------|---------------------------------|
A||---------------------------------|-3-----------3-------------------|
E||---------------------------------|---------------------------------|


e||-----6---5---3-----------3-------|---------------------------------|
B||-----------------5---3-----------|---------------------------------|
G||-4-----------2---------------4---|-2-------------------------------|
D||-2-----------2-------------------|-2-----------2-------------------|
A||-0-----------0-------------------|-0-----------0-------------------|
E||---------------------------------|---------------------------------|



e||---------------------2---2---5---|-7---------------------------3-5-|
B||---------------------------------|-5-------------------------------|
G||-------------5---5---------------|-4-------------------------------|
D||-----4---4---0-------------------|---------------------------------|
A||-5-----------0-------------------|---------------------------------|
E||-5-------------------------------|-0-------------------------------|



e||-7-------------------------------|---------------------------------|
B||-0-------------------0---0-------|-----------------0---0---3---3---|
G||-0---7---7---5---5-----------2---|---------0---0-------------------|
D||-0-----------0-------------------|-2---2-------2-------------------|
A||---------------------------------|-3-----------3-------------------|
E||-------------3-------------------|---------------------------------|


e||---------------------------------|-------------------------0---0---|
B||-----3---3---1---1---0---0-------|-----------------0----0----------|
G||-2-----------0---------------2---|---------0---0-------------------|
D||-0-----------0-------------------|-2---2-------2-------------------|
A||---------------------------------|-3-----------3-------------------|
E||-3-----------3-------------------|---------------------------------|


e||-2-------------------------------|-----------------0---0---5---5---|
B||-----3---3---1---1---0---0-------|---------1---1-------------------|
G||-0---0---0-------------------2---|-0---0-----------0---0---5---5---|
D||-0-----------2---2---0---0-------|---------2---2-------------------|
A||-----------------------------3---|-3---3-------3-------------------|
E||-3-----------3-------------------|---------------------------------|



e||-7-------------------------------|-----------------0---0---5---5---|
B||-3---3---3---1---1---0---0-------|---------1---1-------------------|
G||-----------------------------2---|-0---0-----------0---0---5---5---|
D||-----5---5---2---2---0---0-------|---------2---2-------------------|
A||-----------------------------3---|-3---3-------3-------------------|
E||-3-----------3-------------------|---------------------------------|


e||-----5---5---3---0---0-----------|---------------------------------|
B||-1---------------1-------3---0---|---------------------------------|
G||-2---------------0---------------|-2-------------------------------|
D||---------------------------------|-0-----------0-------------------|
A||---------------------------------|-0-----------0-------------------|
E||-1---------------3---------------|---------------------------------|



e||-----0---0---3---3---7---7---10--|-10------------------------------|
B||-------------0---0---------------|---------------------------------|
G||-----0---0-----------7---7---11--|-11------------------------------|
D||-----------------0---------------|-0-----------0-------------------|
A||-3-------------------------------|-0-----------0-------------------|
E||-----------------3---------------|---------------------------------|


e||----<5>-<5>-<3>-<0>-<0>----------|-----------------------------3-5-|
B||------------------------<3>-<2>--|---------------------------------|
G||---------------------------------|<2>------------------------------|
D||---------------------------------|-0-------------------------------|
A||---------------------------------|-0-------------------------------|
E||-1---------------3---------------|---------------------------------|



e||-7-------------------------------|-------------------------0---0---|
B||-0-------------------0---0-------|-----------------0---0-----------|
G||-0---7---7---5---5-----------2---|---------0---0-------------------|
D||-0-----------0-------------------|-2---2-------2-------------------|
A||---------------------------------|-3-----------3-------------------|
E||-------------3-------------------|---------------------------------|



e||-2-------------------------------|-----------------0---0---5---5---|
B||-----3---3---1---1---0---0-------|---------1---1-------------------|
G||-----0---0-------------------2---|-0---0-----------0---0---5---5---|
D||-0-----------2---2---0---0-------|---------2---2-------------------|
A||-----------------------------3---|-3---3-------3-------------------|
E||-3-----------3-------------------|---------------------------------|



e||-7-------------------------------|-----------------0---0---5---5---|
B||-3---3---3---1---1---0---0-------|---------1---1-------------------|
G||-----------------------------2---|-0---0-----------0---0---5---5---|
D||-----5---5---2---2---0---0-------|---------2---2-------------------|
A||-----------------------------3---|-3---3-------3-------------------|
E||-3-----------3-------------------|---------------------------------|



e||-7-------------------------------||
B||-5-------------------------------||
G||-4-------------------------------||
D||---------------------------------||
A||---------------------------------||
E||-0-------------------------------||
Tap to rate this tab
 
# A B C D E F G H I J K L M N O P Q R S T U V W X Y Z