Guitaretab - guitar tabs
Song name
# A B C D E F G H I J K L M N O P Q R S T U V W X Y Z

Twilight - Bellas Lullaby tab

This is da part of the song that comes in the movie that i know...
i learned to play it on the piano and tabbed it.. Enjoy..

|-------------------------|---------------------------0-3-5-3-5-7-|
|-------------------------|-------------------------4-------------|
|-3-2-0-----0-------------|-3-2-0-----0-----------0---------------|
|-------2-0---------------|-------2-0-----------4-----------------|
|-------------2-0-2-3---0-|-------------2-0-2-3-------------------|
|---------------------3---|---------------------------------------|

|-14-7-5-3-2-0--|-14-7-3-5-7-14-12-10-8-7-5-3-2-----|-----------------|
|---------------|-------------------------------3-0-|-3-2-0-----0-----|
|---------------|-----------------------------------|-------2-0-------|
|---------------|-----------------------------------|-----------------|
|---------------|-----------------------------------|-------------2-0-|
|---------------|-----------------------------------|-----------------|
[ Tab from: http://www.guitaretab.com/t/twilight/177303.html ]
|-----------------------------------------------------|---------------------|
|---------------0-----0-------------------------------|---------------------|
|-------------2---0-2---------------------------------|---------------------|
|---------4-4-----------0-0-----------------------0-0-|-0-0-----------------|
|-2-2-3-3-------------------3-3-2-2-0---------2-2-----|-----3-3-2-2-0-------|
|-------------------------------------0-0-3-3---------|---------------0-0-3-|

|-------------------------------------------------------------------|
|-------------------------------------------------------------------|
|-------------------------------2-2--2-2---------------------2-2----|
|-----2-4-0-0---------------2-2-----------0-0------------2-2--------|
|---2---------3-3-2-0-0-3-3----------------3-3-2-0-0-3-3------------|
|-3-----------------------------------------------------------------|

|-----------------|------------------5-5-3-0-0-------|---------------------|
|-----------------|---------0-0-3-3--1-1-0-----3-0---|-----0---------------|
|-2-2-0-----------|-----0-0----------------0-0-----2-|-0-2-----------------|
|-------2-2-0-----|-2-2-----0-0-4-4------------0-0-0-|-------0-0-----------|
|-------------2-0-|-----2-2--------------------------|-----------3-3-2-2-0-|
|-----------------|-3-3------------------------------|---------------------|

|------------------------------------------------|
|----------------------------------------------0-|
|--------------------------------------------2---|
|-------------2-4-0-0--------------------2-2-----|
|---------2-2---------3-3-2-2-0------3-3---------|
|-0-0-3-3------------------------3-3-------------|
Related for Bellas Lullaby tab