Song name
# A B C D E F G H I J K L M N O P Q R S T U V W X Y Z

Twin Sister - Lady Daydream tab

-------------------------------------------------------------------------------
                             LADY DAYDREAM - Twin Sister
-------------------------------------------------------------------------------
http://twinsistermusic.com/

Tabbed by: Neil R. Rose
E-mail: neil.damage.done@gmail.com

Tuning: Standard

This isn’t spot on.

Capo on 4th


e|------------------------|------------------------|
B|------------------------|------------------------|
G|--9--8-6--4-------------|--9--8-6--4-------------|
D|-------------6--4-----4-|-------------6--4---4-4-|
A|-------------------7----|------------------------|
E|------------------------|------------------------|

e|----------------------------|-----------------|
B|----------------------------|-----------------|
G|--------------------------6-|--9--8--6--8—-9~-|
D|--6--8--9--8--6---8---9-----|-----------------|
A|----------------------------|-----------------|
E|----------------------------|-----------------|

F F - G G - C C - Am Am

F        G         C           Am
  If you forget it all, I will bring it with me.
F        G               C         Am
  If you can't find the sea, I will take you there.
F        G           C         Am
  If you forget it all, I will bring it with me.
F        G               C         Am
  If you can't find the sea, I will take you there.

e|--------------------------------|-----------------------------------|
B|--------------------------------|-----------------------------------|
G|---------------------------8--4-|-----------------------------8—-4~-|
D|--6-------8--4----9--6----------|--6-------8--4----9--4--6----------|
A|-----7--------------------------|-----7-----------------------------|
E|--------------------------------|-----------------------------------|

Green…
(For this part instead of strumming I play like…)
      F       G       C      Am
e|-------5-------7-------4-------4--|
B|-------5-------7-------5-------5--|
G|-------6-------4-------4-------6--|
D|-------7-------4----6-------6-----|
A|----7-------6-----7-------4-------|
E|--5-------7-----------------------|

You still know me by name…

(And for this part I strike! Than strummmm, than strike!, than strummm for the first two 
lines only, than back to normal)
e|--5----7~----4----4~--|
B|--5----7~----5----5~--|
G|--6----4~----4----6~--|
D|--7----4~----6----6~--|
A|--7----6~----7----4~--|
E|--5----7~-------------|

F                  G~    C    Am~
  Even though I'm losing,
F         G~        C     Am~
  Doesn't make me a loser… Yet!
F           G          C      Am
  You still know me by name, Green.
F            G         C      Am
  I'll still be Lady Daydream.

e|--------------------------------|-----------------------------------|
B|--------------------------------|-----------------------------------|
G|---------------------------8--4-|-----------------------------8—-4~-|
D|--6-------8--4----9--6----------|--6-------8--4----9--4--6----------|
A|-----7--------------------------|-----7-----------------------------|
E|--------------------------------|-----------------------------------|

F             G
  She took it all from me,
C        Am
  Now I can't find my place.
F         G
  Do you 'member me?
C         Am
  Do you know my face?


F          G
  It could all be a dream.
C          Am
  It could all be a dream.
(Many times…)
Green.
Tap to rate this tab
# A B C D E F G H I J K L M N O P Q R S T U V W X Y Z