Song name
# A B C D E F G H I J K L M N O P Q R S T U V W X Y Z

Twisted Sister - Dont Let Me Down tab

-----------------------------------------------------------------------------
	           Twisted Sister - Don't Let Me Down
                            Stay Hungry 1984
-----------------------------------------------------------------------------
Tabbed by:*KissinTime*
Email:

Tuning:

Riff.1
e|--2-3-2-3-2----------2-3-2-3-2--------------------------------------------|
B|------------3------------------5------------------------------------------|
G|--------------------------------------------------------------------------|
D|--------------------------------------------------------------------------|
A|--------------------------------------------------------------------------|
E|--------------------------------------------------------------------------|

Riff.2
e|--------------------------------------------------------------------------|
B|--------------------------------------------------------------------------|
G|--9-----9----7-------7----12----9-----------------------------------------|
D|--9-----9----7-------7----12----9-----------------------------------------|
A|--7-----7----5-------5----10----7-----------------------------------------|
E|--------------------------------------------------------------------------|

Riff.3              Look at you...
e|--------------------------------------------------------------------------|
B|--------------------------------------------------------------------------|
G|--(12)--9------------------------12-----9--------12------7-----12-----9---|
D|--(12)--9------------------------12-----9--------12------7-----12-----9---|
A|--(10)--7------------------------10-----7--------10------5-----10-----7---|
E|--------------------------------------------------------------------------|

Riff.4
e|--------------------------------------------------------------------------|
B|--------------------------------------------------------------------------|
G|--5---9--7--9--7--9---5---7--5--4------------5----------------------------|
D|--5---9--7--9--7--9---5---7--5--4--2--4--5---5----------------------------|
A|--3---7--5--7--5--7---3---5--3--2--2--4--5---3----------------------------|
E|-----------------------------------0--2--3--------------------------------|
Riff.5                            Dont Let me Down.....
e|--------------------------------------------------------------------------|
B|--------------------------------------------------------------------------|
G|-5--5----7--7--7-------(12)----9------------------------------------------|
D|-5--5----7--7--7-------(12)----9------------------------------------------|
A|-3--3----5--5--5-------(10)----7------------------------------------------|
E|--------------------------------------------------------------------------|


| /  slide up
| \  slide down
| h  hammer-on
| p  pull-off
| ~  vibrato
| +  harmonic
| x  Mute note
=============================================================================
Tap to rate this tab
 
# A B C D E F G H I J K L M N O P Q R S T U V W X Y Z