Guitaretab - guitar tabs
Song name
# A B C D E F G H I J K L M N O P Q R S T U V W X Y Z

Twisted Sister - Were Not Gonna Take It tab

/ = Slide
x = Palm Mute

Intro:
Drums & Vocals

Then

e|----------------------------|
A|----------------------------|
D|-9--9/8--8/6--6/4--4/-------|
G|-9--9/8--8/6--6/4--4/-------| x2
B|-7--7/6--6/4--4/2--2/-------|
E|----------------------------|

Verse:

e|-----------------------------------------------------------------|
A|-----------------------------------------------------------------|
D|-9-9-9-----------9-9-9---------9-9-9----------9-9-9--------------|
G|-9-9-9--9-9-9-9--9-9-9--7-7-7--9-9-9---9-9-9--9-9-9--9-9-9-9-9---| x2
B|-7-7-7--9-9-9-9--7-7-7--7-7-7--7-7-7---9-9-9--7-7-7--9-9-9-9-9---|
E|--------7-7-7-7---------5-5-5----------7-7-7---------7-7-7-7-7---|
   x x x  x x x x  x x x  x x x  x x x   x x x  x x x


Chorus:

e|----------------------------------------------------------------------|
A|----------------------------------------------------------------------|
D|-9-9-9-----------9-9-9---------9-9-9------------9---9/8--8/6--6/4-----|
G|-9-9-9--9-9-9-9--9-9-9--7-7-7--9-9-9---9-9-9----9---9/8--8/6--6/4-----|
B|-7-7-7--9-9-9-9--7-7-7--7-7-7--7-7-7---9-9-9----7---7/6--6/4--4/2-----|
E|--------7-7-7-7---------5-5-5----------7-7-7--------------------------|


Verse 2:

e|-----------------------------------------------------------------|
A|-----------------------------------------------------------------|
D|-9-9-9-----------9-9-9---------9-9-9----------9-9-9--------------|
G|-9-9-9--9-9-9-9--9-9-9--7-7-7--9-9-9---9-9-9--9-9-9--9-9-9-9-9---|
B|-7-7-7--9-9-9-9--7-7-7--7-7-7--7-7-7---9-9-9--7-7-7--9-9-9-9-9---|
E|--------7-7-7-7---------5-5-5----------7-7-7---------7-7-7-7-7---|
   x x x  x x x x  x x x  x x x  x x x   x x x  x x x

e|-------------------------------------------------------------------|
A|-------------------------------------------------------------------|
D|-9-9-9-----------9-9-9---------9-9-9----------9--9/8--8/6--6/4-----|
G|-9-9-9--9-9-9-9--9-9-9--7-7-7--9-9-9---9-9-9--9--9/8--8/6--6/4-----|
B|-7-7-7--9-9-9-9--7-7-7--7-7-7--7-7-7---9-9-9--7--7/6--6/4--4/2-----|
E|--------7-7-7-7---------5-5-5----------7-7-7-----------------------|
   x x x  x x x x  x x x  x x x  x x x   x x x 

Bridge:

e|----------------------------|
A|----------------------------|
D|----------------------------|
G|--12-12-12--11-11-11-9-9-9--| x2
B|--12-12-12--11-11-11-9-9-9--|
E|--10-10-10--9--9--9--7-7-7--|
    xx xx xx  x  x  x  x x x

   Then

(Whe're right, we're free)

e|---------------------|
A|---------------------|
D|--9------------------|
G|--9----3----4----9---|
B|--7----3----4----9---|
E|-------1----2----7---|


Chorus 2:

[ Tab from: http://www.guitaretab.com/t/twisted-sister/19866.html ]
e|-----------------------------------------------------------------|
A|-----------------------------------------------------------------|
D|-9-9-9-----------9-9-9---------9-9-9----------9-9-9--------------|
G|-9-9-9--9-9-9-9--9-9-9--7-7-7--9-9-9---9-9-9--9-9-9--9-9-9-9-9---| 
B|-7-7-7--9-9-9-9--7-7-7--7-7-7--7-7-7---9-9-9--7-7-7--9-9-9-9-9---|
E|--------7-7-7-7---------5-5-5----------7-7-7---------7-7-7-7-7---|

e|----------------------------------------------------------------------|
A|----------------------------------------------------------------------|
D|-9-9-9-----------9-9-9---------9-9-9------------9---9/8--8/6--6/4-----|
G|-9-9-9--9-9-9-9--9-9-9--7-7-7--9-9-9---9-9-9----9---9/8--8/6--6/4-----|
B|-7-7-7--9-9-9-9--7-7-7--7-7-7--7-7-7---9-9-9----7---7/6--6/4--4/2-----|
E|--------7-7-7-7---------5-5-5----------7-7-7--------------------------|



Solo:

e|-0---0-2----2---4-2-4--5-5-5--4-2--4-2-0-2-4--0-0-0-------7-7-7-7-7--|
B|---0-----0-----------------------------------------------------------|
G|---------------------------------------------------------------------|
D|---------------------------------------------------------------------|
A|---------------------------------------------------------------------|
E|---------------------------------------------------------------------|

e|-0-0---0-2-------4---0-2-4-5-0-----4-4-2-0-2-4--0-0-0------------|
B|-----0-----0-----------------------------------------------------|
G|-----------------------------------------------------------------|
D|-----------------------------------------------------------------|
A|-----------------------------------------------------------------|
E|-----------------------------------------------------------------|

e|-------------------------|
A|-------------------------|
D|-9--9/8--8/6--6/4--------|
G|-9--9/8--8/6--6/4--------|
B|-7--7/6--6/4--4/2--------|
E|-------------------------|



Bridge:

e|----------------------------|
A|----------------------------|
D|----------------------------|
G|--12-12-12--11-11-11-9-9-9--| x2
B|--12-12-12--11-11-11-9-9-9--|
E|--10-10-10--9--9--9--7-7-7--|
    xx xx xx  x  x  x  x x x

   Then

(Whe're right, we're free)

e|---------------------|
A|---------------------|
D|--9------------------|
G|--9----3----4----9---|
B|--7----3----4----9---|
E|-------1----2----7---|


Chorus:

First time: Drums & Vocals

Then...
e|--------------------------------------------------------------------------|
A|--------------------------------------------------------------------------|
D|----------9-9-9-----------9-9-9---------9-9-9----------9-9-9--------------|
G|-9-9-9-9--9-9-9--9-9-9-9--9-9-9--7-7-7--9-9-9---9-9-9--9-9-9--9-9-9-9-9---| 
B|-9-9-9-9--7-7-7--9-9-9-9--7-7-7--7-7-7--7-7-7---9-9-9--7-7-7--9-9-9-9-9---|
E|-7-7-7-7---------7-7-7-7---------5-5-5----------7-7-7---------7-7-7-7-7---|

    And repeat the final riff till' the end of the song.

That's all!
Please rate it and tell me what you think! ;)
Related for Were Not Gonna Take It tab
Were Not Gonna Take It chords by Twisted Sister