Song name
# A B C D E F G H I J K L M N O P Q R S T U V W X Y Z

Twisted Wheel - You Stole The Sun tab

----------------------------------------------------------------------------
			     You Stole The Sun - Twisted Wheel
----------------------------------------------------------------------------

Tabbed by: Markie31
Email: mark_cheddar31@hotmail.co.uk

Tuning: Standard (eBGDAE)

Mainly F and Bb chords throughout using fast up and downstrokes.

Check song for strumming/rhythm.

Bb can also be played= D 8
                       A 8
                       E 6

Intro
    F
e|--------------------------------------------------------------------------|
B|--------------------------------------------------------------------------|
G|--2-2-2-2-2-2-2-2-2-2-2-2-2-2-2-2-2-2-2-2-2-2-2-2-2-2-2-2-2-2-2-2-2-2-2---|
D|--3-3-3-3-3-3-3-3-3-3-3-3-3-3-3-3-3-3-3-3-3-3-3-3-3-3-3-3-3-3-3-3-3-3-3---|
A|--3-3-3-3-3-3-3-3-3-3-3-3-3-3-3-3-3-3-3-3-3-3-3-3-3-3-3-3-3-3-3-3-3-3-3---|
E|--1-1-1-1-1-1-1-1-1-1-1-1-1-1-1-1-1-1-1-1-1-1-1-1-1-1-1-1-1-1-1-1-1-1-1---|

First Chorus
    Bb
e|--------------------------------------------------------------------------|
B|--------------------------------------------------------------------------|
G|--3-----------------------------------------------------------------------|
D|--3-----------------------------------------------------------------------|
A|--1-----------------------------------------------------------------------|
E|--------------------------------------------------------------------------|
    You stole the sun and it's raining outside

    Bb
e|--------------------------------------------------------------------------|
B|--------------------------------------------------------------------------|
G|--3-----------------------------------------------------------------------|
D|--3-----------------------------------------------------------------------|
A|--1-----------------------------------------------------------------------|
E|--------------------------------------------------------------------------|
    You stole the sun, you ain't giving him to anyone

Main Chorus
    F
e|--------------------------------------------------------------------------|
B|--------------------------------------------------------------------------|
G|--2-2-2-2-2-2-2-2-2-2-2-2-2-2-2-2-2-2-2-2-2-2-2-2-2-2-2-2-2-2-2-2-2-2-2---|
D|--3-3-3-3-3-3-3-3-3-3-3-3-3-3-3-3-3-3-3-3-3-3-3-3-3-3-3-3-3-3-3-3-3-3-3---|
A|--3-3-3-3-3-3-3-3-3-3-3-3-3-3-3-3-3-3-3-3-3-3-3-3-3-3-3-3-3-3-3-3-3-3-3---|
E|--1-1-1-1-1-1-1-1-1-1-1-1-1-1-1-1-1-1-1-1-1-1-1-1-1-1-1-1-1-1-1-1-1-1-1---|
    You stole the sun!        You stole the sun!

    Bb
e|--------------------------------------------------------------------------|
B|--------------------------------------------------------------------------|
G|--3-3-3-3-3-3-3-3-3-3-3-3-3-3-3-3-3-3-3-3-3-3-3-3-3-3-3-3-3-3-3-3-3-3-----|
D|--3-3-3-3-3-3-3-3-3-3-3-3-3-3-3-3-3-3-3-3-3-3-3-3-3-3-3-3-3-3-3-3-3-3-----|
A|--1-1-1-1-1-1-1-1-1-1-1-1-1-1-1-1-1-1-1-1-1-1-1-1-1-1-1-1-1-1-1-1-1-1-----|
E|--------------------------------------------------------------------------|
    You stole the sun and it's raining outside

  Bb
e|--------------------------------------------------------------------------|
B|--------------------------------------------------------------------------|
G|--3-3-3-3-3-3-3-3-3-3-3-3-3-3-3-3-3-3-3-3-3-3-3-3-3-3-3-3-3-3-3-3-3-3-----|
D|--3-3-3-3-3-3-3-3-3-3-3-3-3-3-3-3-3-3-3-3-3-3-3-3-3-3-3-3-3-3-3-3-3-3-----|
A|--1-1-1-1-1-1-1-1-1-1-1-1-1-1-1-1-1-1-1-1-1-1-1-1-1-1-1-1-1-1-1-1-1-1-----|
E|--------------------------------------------------------------------------|
    You stole the sun, you aint giving him to anyone

  F
e|--------------------------------------------------------------------------|
B|--------------------------------------------------------------------------|
G|--2-2-2-2-2-2-2-2-2-2-2-2-2-2-2-2-2-2-2-2-2-2-2-2-2-2-2-2-2-2-2-2-2-2-2---|
D|--3-3-3-3-3-3-3-3-3-3-3-3-3-3-3-3-3-3-3-3-3-3-3-3-3-3-3-3-3-3-3-3-3-3-3---|
A|--3-3-3-3-3-3-3-3-3-3-3-3-3-3-3-3-3-3-3-3-3-3-3-3-3-3-3-3-3-3-3-3-3-3-3---|
E|--1-1-1-1-1-1-1-1-1-1-1-1-1-1-1-1-1-1-1-1-1-1-1-1-1-1-1-1-1-1-1-1-1-1-1---|

    F
e|--------------------------------------------------------------------------|
B|--------------------------------------------------------------------------|
G|--2-----------------------------------------------------------------------|
D|--3-----------------------------------------------------------------------|
A|--3-----------------------------------------------------------------------|
E|--1-----------------------------------------------------------------------|
    So I built myself a ladder and I climbed up to the sun

    I took with me my sunglasses, I took my water pistol

    Bb
e|--------------------------------------------------------------------------|
B|--3-----------------------------------------------------------------------|
G|--3-----------------------------------------------------------------------|
D|--3-----------------------------------------------------------------------|
A|--1-----------------------------------------------------------------------|
E|--------------------------------------------------------------------------|
    And eventually I shot it, stuck him in my bag

    I took him down the ladder and he toasted all my fags

    F
e|---------------------------------------------------------------------------|
B|---------------------------------------------------------------------------|
G|--2-2-2-2-2-2-2-2-2-2-2-2-2-2-2-2-2-2-2-2-2-2-2-2-2-2-2-2-2-2-2-2-2-2-2-2--|
D|--3-3-3-3-3-3-3-3-3-3-3-3-3-3-3-3-3-3-3-3-3-3-3-3-3-3-3-3-3-3-3-3-3-3-3-3--|
A|--3-3-3-3-3-3-3-3-3-3-3-3-3-3-3-3-3-3-3-3-3-3-3-3-3-3-3-3-3-3-3-3-3-3-3-3--|
E|--1-1-1-1-1-1-1-1-1-1-1-1-1-1-1-1-1-1-1-1-1-1-1-1-1-1-1-1-1-1-1-1-1-1-1-1--|
  PM-------------------------------------------------------------------------|
    And then I hung him in my bedroom and it was nice and hot

    I went into my wardrobe put on my shades and shorts

    Bb
e|---------------------------------------------------------------------------|
B|---------------------------------------------------------------------------|
G|--3-3-3-3-3-3-3-3-3-3-3-3-3-3-3-3-3-3-3-3-3-3-3-3-3-3-3-3-3-3-3-3-3-3------|
D|--3-3-3-3-3-3-3-3-3-3-3-3-3-3-3-3-3-3-3-3-3-3-3-3-3-3-3-3-3-3-3-3-3-3------|
A|--1-1-1-1-1-1-1-1-1-1-1-1-1-1-1-1-1-1-1-1-1-1-1-1-1-1-1-1-1-1-1-1-1-1------|
E|---------------------------------------------------------------------------|
   PM------------------------------------------------------------------------|>>
       Soon I had a suntan I hadn't told a soul

    Bb
e|--------------------------------------------------------------------------|
B|--------------------------------------------------------------------------|
G|--3-3-3-3-3-3-3-3-3-3-3-3-3-3-3-3-3-3-------------------------------------|
D|--3-3-3-3-3-3-3-3-3-3-3-3-3-3-3-3-3-3-------------------------------------|
A|--1-1-1-1-1-1-1-1-1-1-1-1-1-1-1-1-1-1-------------------------------------|
E|--------------------------------------------------------------------------|
    Police came round to ask me I said   I didn't know

Repeat Main Chorus

Verse 2 same as Verse

Lyrics:
   Well it was pitch black outside
   No one could see a thing
   And I'm stood here with my guitar and I begin to sing
   While everybody else, is searching for a torch
   I'm stood in the sunshine, there's no way I'm getting bored
   I'm sipping on a cocktail, I suck a strawberry split
   I hold my glass up in the air, I said I love this shit
   Mr Sunshine said to me, When will you set me free?
   I said to him with a grin on my face No you're all for me

Main Chorus

Interlude

   F
e|--------------------------------------------------------------------------|
B|--------------------------------------------------------------------------|
G|--------------------------------------------------------------------------|
D|-3-x-x-x-x-x-x-x-x-x-x-x-x-x-x-x-x-x-x-x-x-x-x-x--------------------------|
A|-3-x-x-x-x-x-x-x-x-x-x-x-x-x-x-x-x-x-x-x-x-x-x-x--------------------------|
E|-1-x-x-x-x-x-x-x-x-x-x-x-x-x-x-x-x-x-x-x-x-x-x-x--------------------------|
   Who stole, who stole, who stole the sun?

   F
e|---------------------------------------------------------------------------|
B|---------------------------------------------------------------------------|
G|---------------------------------------------------------------------------|
D|-3-3-3-3-------------------------------------------------------------------|
A|-3-3-3-3-------------------------------------------------------------------|
E|-1-1-1-1-------------------------------------------------------------------|
   Who stole, who stole, who stole the sun?

   F     Bb
e|--------------------------------------------------------------------------|
B|--------------------------------------------------------------------------|
G|--------------------------------------------------------------------------|
D|-3-3-3-8------------------------------------------------------------------|
A|-3-3-3-8------------------------------------------------------------------|
E|-1-1-1-6------------------------------------------------------------------|
   Who stole, who stole, who stole the sun?

   Bb
e|--------------------------------------------------------------------------|
B|--------------------------------------------------------------------------|
G|--------------------------------------------------------------------------|
D|-8-8-8-8------------------------------------------------------------------|
A|-8-8-8-8------------------------------------------------------------------|
E|-6-6-6-6------------------------------------------------------------------|

Verse 3 same as Verse

Lyrics:
       Well I'm making a confession and I don't know why
       But I had this sudden urge to take the sun right out the sky
       To keep it for myself, not for anybody else
       I got so blind and selfish that I begun to melt
       And after about 3 days, I burnt up to a crisp
       I had to leave the sun off guard to go and have a piss
       To go and get some cream, to soothe my painful blisters
       I ran down to the shop, I heard somebody whisper
       They asked me where I'd been and why I looked like a lobster
       I blamed it on my ex who went to uni and I lost her
       She called me on the phone, and give me loads of grief,
       She says I need to get a life and that I am a thief
       I don't know how she caught me, she really sussed me out
       But anyway I've got to go I've got things to sort out
       I ran back up the road, I looked up at my house
       My window was ajar mister sunshine had got out
       Darkness became daylight, and I felt full of spite,
       I fell down on my knees, and I began to cry
       Mister Sunshine got away, he was shining down his rays
       I went and got my ladders and I got him back again.

Main Chorus

Interlude

Last Chorus
   F
e|--------------------------------------------------------------------------|
B|--------------------------------------------------------------------------|
G|-10-10-10-10-10-10-10-10-10-10-10-10-10-10-10-10--------------------------|
D|-10-10-10-10-10-10-10-10-10-10-10-10-10-10-10-10--------------------------|
A|-8--8--8--8--8--8--8--8--8--8--8--8--8--8--8--8---------------------------|
E|--------------------------------------------------------------------------|
   You stole the sun ????say yeah????

   F
e|--------------------------------------------------------------------------|
B|--------------------------------------------------------------------------|
G|-10-10-10-10-10-10-10-10-10-10-10-10-10-10-10-10--------------------------|
D|-10-10-10-10-10-10-10-10-10-10-10-10-10-10-10-10--------------------------|
A|-8--8--8--8--8--8--8--8--8--8--8--8--8--8--8--8---------------------------|
E|--------------------------------------------------------------------------|
   You stole the sun!

   Bb
e|--------------------------------------------------------------------------|
B|--------------------------------------------------------------------------|
G|--------------------------------------------------------------------------|
D|-8-8-8-8-8-8-8-8-8-8-8-8-8-8-8-8-8-8-8-8-8-8-8-8-8-8----------------------|
A|-8-8-8-8-8-8-8-8-8-8-8-8-8-8-8-8-8-8-8-8-8-8-8-8-8-8----------------------|
E|-6-6-6-6-6-6-6-6-6-6-6-6-6-6-6-6-6-6-6-6-6-6-6-6-6-6----------------------|
   You stole the sun and it's raining outside

   Bb
e|--------------------------------------------------------------------------|
B|--------------------------------------------------------------------------|
G|--------------------------------------------------------------------------|
D|-8-8-8-8-8-8-8-8-8-8-8-8-8-8-8-8-8-8-8-8-8-8-8-8-8-8----------------------|
A|-8-8-8-8-8-8-8-8-8-8-8-8-8-8-8-8-8-8-8-8-8-8-8-8-8-8----------------------|
E|-6-6-6-6-6-6-6-6-6-6-6-6-6-6-6-6-6-6-6-6-6-6-6-6-6-6----------------------|
   You stole the sun you ain't giving him to anyone

  F
e|--------------------------------------------------------------------------|
B|--------------------------------------------------------------------------|
G|--2-2-2-2-2-2-2-2-2-2-2-2-2-2-2-2-2-2-2-2-2-2-2-2-2-2-2-2-2-2-2-2-2-2-2---|
D|--3-3-3-3-3-3-3-3-3-3-3-3-3-3-3-3-3-3-3-3-3-3-3-3-3-3-3-3-3-3-3-3-3-3-3---|
A|--3-3-3-3-3-3-3-3-3-3-3-3-3-3-3-3-3-3-3-3-3-3-3-3-3-3-3-3-3-3-3-3-3-3-3---|
E|--1-1-1-1-1-1-1-1-1-1-1-1-1-1-1-1-1-1-1-1-1-1-1-1-1-1-1-1-1-1-1-1-1-1-1---|
    You stole the sun

   C                 Bb          F
e|--------------------------------------------------------------------------|
B|--------------------------------------------------------------------------|
G|-------------------------------------2-----------2------------------------|
D|-10-10-10-10-10-10-8-8-8-8-8-8-1-----3-----------3------------------------|
A|-10-10-10-10-10-10-8-8-8-8-8-6-3-----3-----------3------------------------|
E|-8--8--8--8--8--8--6-6-6-6-6-6-3-----1-----------1------------------------|
   You stole the sun from everyone


Please comment, rate, improve etc.

Thank you from Markie31


| /  slide up
| \  slide down
| h  hammer-on
| p  pull-off
| ~  vibrato
| +  harmonic
| x  Mute note
===============================================================================
Tap to rate this tab
 
# A B C D E F G H I J K L M N O P Q R S T U V W X Y Z