Song name
# A B C D E F G H I J K L M N O P Q R S T U V W X Y Z

Two Door Cinema Club - Come Back Home tab

Again, this is only the lead part as I havent worked out the rhythm yet :)

Intro
e|--------10-10-1010-|
B|--------11-11-1111-|
G|0-/12---12-12-1212-|
D|-------------------|
A|-------------------|
E|-------------------|

Verse - Come in late
e|3-3-/13-10--3-3-/13-10--|
B|------------------------|
G|-0-0------0--0-0------0-|
D|------------------------|
A|------------------------|
E|------------------------|

Chorus
e|-----15---18b20r18-13-13-13------15--------15---------|
B|11/13--13-------------------11/13--13-11/13--11-11-11-|
G|------------------------------------------------------|
D|------------------------------------------------------|
A|------------------------------------------------------|
E|------------------------------------------------------|

Intro Riff Variation
e|-------131313101010-|
B|-------111111111111-|
G|0-/12--121212121212-|
D|--------------------|
A|--------------------|
E|--------------------|

Verse
e|----------|
B|-4--1-----|
G|0--0--3-0-|
D|----------|
A|----------|
E|----------| for a bit

Then
e|3-3-/13-10--3-3-/13-10--|
B|------------------------|
G|-0-0------0--0-0------0-|
D|------------------------|
A|------------------------|
E|------------------------|

Chorus again

Intro

Intro Variation

Last Chorus
e|------15---18b20r18-13-13-13------15--------15----------|
B|11-13---13-------------------11-13--13-11-13---11-11-11-|
G|--------------------------------------------------------|
D|--------------------------------------------------------|
A|--------------------------------------------------------|
E|--------------------------------------------------------|

Finish on
e|-------|
B|13-13\-|
G|-------|
D|-------|
A|-------|
E|-------|
Tap to rate this tab
# A B C D E F G H I J K L M N O P Q R S T U V W X Y Z