Song name
# A B C D E F G H I J K L M N O P Q R S T U V W X Y Z

Two Steps From Hell - Heart Of Courage tab

Hello all, this is my first tab ever but I'm pretty sure it's 100% correct. I did this 
yesterday, learnt it by ear, it's really quite easy!


Intro:

e-------------------------------------------------------------------|
B------------------6----------------------------------6-----9-------|
G--6----5----6-----------8----------------6-----8-----------------8-|
D-------------------------------------------------------------------|
A-------------------------------------------------------------------|
D-------------------------------------------------------------------|


e-------------------------------------------------------------------|
B------------------6------------------------------------------------|
G--6----5----6-----------8----------------6-----8-----5-------------|
D-------------------------------------------------------------------|
A-------------------------------------------------------------------|
D-------------------------------------------------------------------|

Then:

e----------------------------------------------------------------------|
B----------------------------------------------------------------------|
G----------------------------------------------------------------------|  x2
D----------3-----------6---6-------------------------------------------|
A--1-1-1-1---1-1-4-4-4---4---4-4-4---------6-----------1---1-----------|
D----------------------------------6-6-6-6---6-6-1-1-1---1---1-4-3-----|


Then:

e-------------------------------------------------------------------|
B-------------------------------------------------------------------|
G----------------6--8--10------------8--11--10--8-------------------|
D---8--10--11----------------10--11----------------11---------------|
A-------------------------------------------------------------------|
D-------------------------------------------------------------------|

e-------------------------------------------------------------------|
B-------------------------------------------------------------------|
G----------------6--8--10--5---6--5--8--6-8-------------------------|
D---8--10--11-------------------------------------------------------|
A-------------------------------------------------------------------|
D-------------------------------------------------------------------|


e-------------------------------------------------------------------|
B-------------------------------------------------------------------|
G----------------6--8--10------------8--11--10--8-------------------|
D---8--10--11----------------10--11----------------11---------------|
A-------------------------------------------------------------------|
D-------------------------------------------------------------------|

e-------------------------------------------------------------------|
B----------------------------------------9--------------------------|
G----------------6--8--10--8---10---11------------------------------|
D---8--10--11-------------------------------------------------------|
A-------------------------------------------------------------------|
D-------------------------------------------------------------------|


Then:


e-------------------------------------------------------------------|
B-----------------------9--11--------------9--12--11--9-------------|
G----8--10--11------11---------------10-11--------------11----------|
D-------------------------------------------------------------------|
A-------------------------------------------------------------------|
D-------------------------------------------------------------------|

e-------------------------------------------------------------------|
B----------------------9--11----------------------------------------|
G---8--10--11------11---------10---11--10--8----4--6----------------|
D-------------------------------------------------------------------|
A-------------------------------------------------------------------|
D-------------------------------------------------------------------|


e-------------------------------------------------------------------|
B-----------------------9--11--------------9--12--11--9-------------|
G----8--10--11------11---------------10-11--------------11----------|
D-------------------------------------------------------------------|
A-------------------------------------------------------------------|
D-------------------------------------------------------------------|

e----------------------------------------------------9----------------|
B-----------------------9--11-------------9--11--12-------------------|
G----8--10--11------11---------10---11--------------------------------|
D---------------------------------------------------------------------|
A---------------------------------------------------------------------|
D---------------------------------------------------------------------|

And then the little riff starts again and fades out. That's it :)! Enjoy the tab!

You can contact me at joren_broekema@hotmail.com
Tap to rate this tab
 
# A B C D E F G H I J K L M N O P Q R S T U V W X Y Z