Song name
# A B C D E F G H I J K L M N O P Q R S T U V W X Y Z

Tygers Of Pan Tang - It Aint Easy tab

-------------------------------------------------------------------------------
			     IT AIN'T EASY - Tygers Of Pan Tang
-------------------------------------------------------------------------------
Tabbed by: nothero
Email: matic_111@yahoo.com

Tuning: EADGBe

Background chords are C, G, Am, Am

LEAD GUITAR
e|---------------------------------------------------------------------------|
B|----------------------------------------8b--8b--8-6-5h6p5----------5-------|
G|------7b---5-7-5-\4h5p4------------7b7---------------------7---5-7---------|
D|-------------------------5h7-5---------------------------------------------|
A|---------------------------------------------------------------------------|
E|---------------------------------------------------------------------------|

e|-------10-7----------------------------------------------------------------|
B|-------------8-5-----------------------------------------------------------|
G|---------------------7-4-------------------------------5\4-----------------|
D|--------------------------5-----------------7-----5h7-------5-----7~-------|
A|----------------------------7--------3h5/7-----7---------------7-----------|
E|----------------------------------5----------------------------------------|

e|------------------8---15-12------------------------------------------------|
B|--------5h6p5---5-----------13-10-8--5-7-5h7-5---8b------------------------|
G|----5-7-------7-------------------------------------9p7\5h7p5-7b~--7--5----|
D|---------------------------------------------------------------------------|
A|---------------------------------------------------------------------------|
E|---------------------------------------------------------------------------|

e|---------------------------------------------------------------------------|
B|---------------------------------------------------------------------------|
G|----------10-10--------12-12----13h14p13-----------------13h14p13----------|
D|-------10-----------12--------------------14----------14----------14-------|
A|-----8-----------10--------------------------14----14----------------14----|
E|---------------------------------------------------------------------------|

e|---------------------------------------------------------------------------|
B|---------------------------------------------------------------------------|
G|----------10----------------12----------14---------------------------------|
D|-------10----------------12-------------14---------------------------------|
A|-----8-------8--------10-------10-------12---------------------------------|
E|---------------------------------------------------------------------------|

e|------------------------------------12h15p12-----12------------------------|
B|----15b--13-12----12-------12-13-15-----------15----15-13-12--13p12--------|
G|---------------14----12-14------------------------------------------14-----|
D|---------------------------------------------------------------------------|
A|---------------------------------------------------------------------------|
E|---------------------------------------------------------------------------|

e|---------------------------------------------------------------------------|
B|----13p12---------------12-13p12-------15---13-12------12h13p12-----12~----|
G|----------14-----12-14-----------14----------------14-----------14---------|
D|---------------------------------------------------------------------------|
A|---------------------------------------------------------------------------|
E|---------------------------------------------------------------------------|

e|-------------10---10p7-------------15b---15-13-12------12------------------|
B|----------8-------------8--------------------------15----------------------|
G|-----9p7-------------------9-----------------------------------------------|
D|---------------------------------------------------------------------------|
A|---------------------------------------------------------------------------|
E|---------------------------------------------------------------------------|

e|-----12hb12--10------------------------------------------------------------|
B|-----------------13--10----------------------------------------------------|
G|-------------------------12-9~-----7~-----5~-----4~------------------------|
D|---------------------------------------------------------------------------|
A|---------------------------------------------------------------------------|
E|---------------------------------------------------------------------------|

e|---------------------------------------------------------------------------|
B|---------------------------------------------------------------------------|
G|----------10-10--------12-12----13h14p13-----------------13h14p13----------|
D|-------10-----------12--------------------14----------14----------14-------|
A|-----8-----------10--------------------------14----14----------------14----|
E|---------------------------------------------------------------------------|

e|---------------------------------------------------------------------------|
B|---------------------------------------------------------------------------|
G|----------10----------------12----------14---------------------------------|
D|-------10----------------12-------------14---------------------------------|
A|-----8-------8--------10-------10-------12---------------------------------|
E|---------------------------------------------------------------------------|

e|---------------------------------------------------------------------------|
B|---15b15-13-12-------------------------------------------------------------|
G|---------------14-12-14-12-14b~---12-14-12\11-7~----7-9/11-12-11-9\7-------|
D|---------------------------------------------------------------------7-5---|
A|---------------------------------------------------------------------------|
E|---------------------------------------------------------------------------|

e|--------------------------------------------15-14-12--15-14-12--17b-17-----|
B|------------------8-5--8---10-13-13b--13-10--------------------------------|
G|---------------------------------------------------------------------------|
D|-----5h7-7/9-9/10----------------------------------------------------------|
A|---7-----------------------------------------------------------------------|
E|---------------------------------------------------------------------------|

e|---15-14-12---12-15-12-----------------------------------------------------|
B|-----------------------15-12-----------------------------------------------|
G|-------------------------------9-12-9--------------------------------------|
D|--------------------------------------12-9---9-12-9-------------5h7---9~---|
A|----------------------------------------------------12-10---7--------------|
E|---------------------------------------------------------------------------|

e|---------------------------------------------------------------------------|
B|---------------------------------------------------------------------------|
G|--7b7-5-7-5\4h5-7--5--4--0--2~---10b10-9-7-9-10-9-7-----------4-5-7-5-4----|
D|----------------------------------------------------7-5~/---7-----------7--|
A|---------------------------------------------------------------------------|
E|---------------------------------------------------------------------------|

e|---------------------------------------------------------------------------|
B|---------------------------------------------------------------------------|
G|-----------------------12-12----13h14p13-----------------13h14p13----------|
D|--------------------12--------------------14----------14----------14-------|
A|-----8-----------10--------------------------14----14----------------14----|
E|---------------------------------------------------------------------------|

e|---------------------------------------------------------------------------|
B|---------------------------------------------------------------------------|
G|----------10----------------12----------14---------------------------------|
D|-------10----------------12-------------14---------------------------------|
A|-----8-------8--------10-------10-------12---------------------------------|
E|---------------------------------------------------------------------------|

e|---------------------------------------------------------------------------|
B|-----8b---8-6-5-6--h8p6p5--6p5---------------------------------------------|
G|--------------------------------7-----7-5\4h5p4----------------------------|
D|------------------------------------------------5b5~-----------------------|
A|-------------------------------------------------------5h7p5\3\2h3---------|
E|--------------------------------------------------------------------5~-----|

e|---------------------------------------------------------------------------|
B|---------------------------------------------------------------------------|
G|---------------------------------------------------------------------------|
D|--------7---8---9----7---8---9----7---8---9----7---8---9---8---7---7~------|
A|------7---7---7----7---7---7----7---7---7----7---7---7---7---7---7---------|
E|---------------------------------------------------------------------------|
        x x x x x x  x x x x x x  x x x x x x  x x x x x x x x x x x

e|---------------------------------------------------------------------------|
B|-----------------5h6p5----------6b6-5--------------------------------------|
G|----------7b/9------------7-5-----------7---4~-----------------------------|
D|---------------------------------------------------------------------------|
A|---------------------------------------------------------------------------|
E|---------------------------------------------------------------------------|

| /  slide up
| \  slide down
| h  hammer-on
| p  pull-off
| ~  vibrato
| +  harmonic
| x  Mute note
| b  band (full)
| hb band (half)

Homepage: http://www.tygersofpantang.com/home.htm
MySpace: http://www.myspace.com/tygersofpantanguk
===============================================================================
Tap to rate this tab
# A B C D E F G H I J K L M N O P Q R S T U V W X Y Z