Song name
# A B C D E F G H I J K L M N O P Q R S T U V W X Y Z

Tyler Ward - Somewhere With You tab

TYLER WARD: "Somewhere With You"



These are the chords used for the song in that exact order. You repeat the 2nd Chord
again after the 3rd one (they're the same) so the whole song is basically only 3 easy
chords. Not sure of the chord names; i just watched Tyler play it and figured it out 
myself, it sounds almost identical.

The 1st chord is on the 4th fret, the 2nd chord is exactly the same, just slide down to
the 2nd fret, the 3rd chord is just two fingers on the 2nd fret on the D and G strings
(middle strings), and the last chord is identical to the 2nd chord. :) Hope this is an 
easy enough explanation!

Check out my cover on youtube:http://www.youtube.com/watch?v=jMC3Hc3N6W8
if you want to play along.


e|-----------------------------------------------------------------------------|
B|-----------------------------------------------------------------------------|
G|------------------6----------------------------------------------------------|
D|------------------6----------------------------------------------------------|
A|-------4---------------------------------------------------------------------|
E|-----------------------------------------------------------------------------|



e|---------------------------------------------------------------------------|
B|---------------------------------------------------------------------------|
G|------------------4--------------------------------------------------------|
D|------------------4--------------------------------------------------------|
A|-------2-------------------------------------------------------------------|
E|---------------------------------------------------------------------------|


e|-----------------------------------------------------------------------------|
B|-----------------------------------------------------------------------------|
G|-------2---------------------------------------------------------------------|
D|-------2---------------------------------------------------------------------|
A|-----------------------------------------------------------------------------|
E|-----------------------------------------------------------------------------|



e|-----------------------------------------------------------------------------|
B|-----------------------------------------------------------------------------|
G|------------------4----------------------------------------------------------|
D|------------------4----------------------------------------------------------|
A|-------2---------------------------------------------------------------------|
E|-----------------------------------------------------------------------------|

That's the chords used for the song ^^^ in that order. You repeat the 2nd Chord after
the 3rd Chord, they're both the same. Not sure of the names, i just watched Tyler play it
and figured it out myself, it sounds almost identical.
Check out my cover on youtube:http://www.youtube.com/watch?v=jMC3Hc3N6W8
if you want to play along.





LYRICS:
If youíre going out with someone new
Iím going out with someone too
I wonít feel sorry for me, Iíll finish this drink
But Iíd much rather be somewhere with you

Laughing loud on a carnival ride, yeah
Driving around on a Saturday night
You made fun of me for singing my song
Got a hotel room just to turn you on

You said pick me up at three a.m.
Youíre fighting with your mom again
And Iíd go, Iíd go, Iíd go somewhere with you
Somewhere with you

I wonít sit outside your house
And wait for the lights to go out
Call up an ex to rescue me, climb in their bed
When Iíd much rather sleep somewhere with you

Like we did on the beach last summer
When the rain came down and we took cover
Down in your car, out by the pier
You laid me down, whispered in my ear

I hate my life, hold on to me
And if you ever decide to leave
Then Iíll go, Iíll go, Iíll go

I can go out every night of the week
Can go home with anybody I meet
But itís just a temporary high ícause when I close my eyes
Iím somewhere with you, somewhere with you

If you see me out on the town
And it looks like Iím burning it down
You wonít ask and I wonít say
But in my heart Iím always somewhere with you

Laughing loud on a carnival ride, yeah
Driving around on a Saturday night
You made fun of me for singing my song
Got a hotel room just to turn you on

You said pick me up at three a.m.
Youíre fighting with your mom again
And Iíd go, Iíd go, Iíd go

I can go out every night of the week
Can go home with anybody I meet
But itís just a temporary high ícause when I close my eyes
Iím with you..
Tap to rate this tab
 
# A B C D E F G H I J K L M N O P Q R S T U V W X Y Z