Guitaretab - guitar tabs
Song name
# A B C D E F G H I J K L M N O P Q R S T U V W X Y Z
Home / T / Typecast / Ice tab

Typecast - Ice tab

http://www.upe.lv/meness.html
http://lv.wikipedia.org/wiki/Jauns_M%C4%93ness
http://www.doremi.lv/index.php?genre=7&artist=93&show_album=1

Intro:
	D                              G
e|-------2--2-------2--2-------2--2----3--3----|
B|-------3--3-------3--3-------3--3----3--3----|
G|-------2--2-------2--2-------2--2------------|
D|-0--0--------0--0-------0--0-------0---------|
A|---------------------------------------------|
E|---------------------------------------------|
[ Tab from: http://www.guitaretab.com/t/typecast/142269.html ]
        D				
e|-------2--2-------2--2-------2--2----0-0--|
B|-------3--3-------3--3-------3--3----2--2--|
G|-------2--2-------2--2-------2--2----3--3--|
D|-0--0--------0--0-------0--0-------0-------|
A|-------------------------------------------|
E|-------------------------------------------|

Main verse:
      D					   C
e|-------------------------------------------------0-|
B|----3------3-----3------3-----3------3------1------|
G|-x--2---x--2--x--2---x--2--x--2---x--2---0-----0---|
D|-0------0-----0------0-----0------0----------------|
A|---------------------------------------------------|
E|---------------------------------------------------|

Chorus:
   Em		 C		  D
e|--0---0-0---0--3--------3----------------5----------------5-|
B|--0---0-0---0--5--5--------5-5/7--7---------5-5/7--7------|
G|--0---0-0---0--5-----5-----5-5/7-----7------5-5/7-----7---|
D|--2------------5-----------5--5/7------------5-5/7---------|
A|--2------------3--------------------------------------------|
E|--0---------------------------------------------------------|

Related for Ice tab