Song name
# A B C D E F G H I J K L M N O P Q R S T U V W X Y Z

Udo Lindenberg - Cello tab

Die Tabs sind für die Stelle, an der das "Cello" ein kurzes Solo spielt.
Es lässt sich einfach auf der Akustik-Gitarre spielen.  
These Tabs are for the part where the "cello" play a short solo.
It's easy to play on the acoustic guitar.

-----------------------------------------------------------------------------
                             Cello - Udo Lindenberg
-----------------------------------------------------------------------------
Tabbed by: FoxHound
Email:     chrisingo94@googlemail.com

Tuning:    standard (EADGBE) 

e|--------------------------------------------------------------------------|
B|-------------------3--3--1------------------------------------------------|
G|-7--5--3--2--3--5-----------3--5--7---------------------------------------|
D|--------------------------------------------------------------------------|
A|--------------------------------------------------------------------------|
E|--------------------------------------------------------------------------|

e|--------------------------------------------------------------------------|
B|-----------------------------------3--------------------------------------|
G|-----8--8--7--5--3-----3--3--5--3-----5--3--------------------------------|
D|--------------------3-----------------------5-----------------------------|
A|-10-----------------------------------------------------------------------|
E|--------------------------------------------------------------------------|

Wenn ihr Hilfe braucht oder Kritik üben wollt, schreibt mir eine Mail.
If you need help or want to offer criticism, send me a mail.
Tap to rate this tab
# A B C D E F G H I J K L M N O P Q R S T U V W X Y Z