Song name
# A B C D E F G H I J K L M N O P Q R S T U V W X Y Z

Udo - Holy tab

Artist/Band - U.D.O.
Album: Holy (1999)
Song: Holy (Intro part)
Tabbed by SlashHead
Email: slashhead111@gmail.com
Date: 03.06.2012

Description:
This is Intro part of the one
of the greatest U.D.O. songs.
Maybe after some time I will put 
a full version of this song at 
the Ultimate Guitar website.
Tab is easy to play after some training.
Enjoy!

Intro
E|-0---2---2-3---2-0---0---2---2-3-0-------------------------------------| 
B|-0---2---------------0---2---------------------------------------------|  
G|-0---2---------------0---2---------------------------------------------| 
D|-----------------------------------------------------------------------|  
A|-----------------------------------------------------------------------| 
E|-----------------------------------------------------------------------|

E|-0---2---2-3---2-0---0---2---2-3-0-------------------------------------| 
B|-0---2---------------0---2---------------------------------------------|  
G|-0---2---------------0---2---------------------------------------------| 
D|-----------------------------------------------------------------------|  
A|-----------------------------------------------------------------------| 
E|-----------------------------------------------------------------------|

E|-0---2---0-1-2-3--0---1-0-1-0---2---0-1-2-3--0-------------------------| 
B|-0---2---0-1-2-3--0---1-0-1-0---2---0-1-2-3--0-------------------------|  
G|-0---2------------0---1-0-1-0---2------------0-------------------------|
D|-----------------------------------------------------------------------|  
A|-----------------------------------------------------------------------| 
E|-----------------------------------------------------------------------|

Tap to rate this tab
# A B C D E F G H I J K L M N O P Q R S T U V W X Y Z