Song name
# A B C D E F G H I J K L M N O P Q R S T U V W X Y Z

Ultimate Spinach - Sacrifice Of The Moon tab

-------------------------------------------------------------------------------
                             Sacrifice of the moon - Ultimate Spinach
-------------------------------------------------------------------------------
Tabbed by: Running_Dogg
E-mail: onlycrims@gmail.com

Tuning: Standard



Starts with silent acoustic, both ways sounds good

e|----------------------------------0----0----0-0----------------------------|
B|---5-----5-----5-5-----------------0----0----0-0---------------------------|
G|----4-----4-----4-4--------OR-------2----2------2--------------------------|
D|-----7-----7-------7-------------------------------------------------------|
A|---------------------------------------------------------------------------|
E|---------------------------------------------------------------------------|

It gets muted by organ like piano

e|--5-----5-----5-5----------------------------------------------------------|
B|---5-----5-----5-5---------------------------------------------------------|
G|----4-----4-------4--------------------------------------------------------|
D|---------------------------------------------------------------------------|
A|---------------------------------------------------------------------------|
E|---------------------------------------------------------------------------|


Bass joins in

G|---------------------------------------------------------------------------|
D|---------------------------------------------------------------------------|
A|-----3-5---7-5---------3-5---7-5-------------------------------------------|
E|--5------------3----5------------3-----------------------------------------|


And here goes the lead

e|---------------------------------------------------------------------------|
B|---5h6p5~--3-5-5/6-5-3-3h5----------------------------5(5)-----------------|
G|----------------------------2-2~------2-2/4-2----2-------------------------|
D|-----------------------------------5-----------5---------------------------|
A|---------------------------------------------------------------------------|
E|---------------------------------------------------------------------------|

e|---------------------------------------------------------------------------|
B|--3------------------------------------------------------------------------|
G|----5-4-4h5-4--4\2--2(2)---------------------------------------------------|
D|---------------------------------------------------------------------------|
A|---------------------------------------------------------------------------|
E|---------------------------------------------------------------------------|



************************************

| /   slide up
| \   slide down
| h   hammer-on
| p   pull-off
| ~   vibrato
| +   harmonic
| x   Mute note
| b   Bend
| pb  Pre-bend
| br  Bend release
| pbr Pre-bend release
| brb Bend release bend

************************************
Tap to rate this tab
 
# A B C D E F G H I J K L M N O P Q R S T U V W X Y Z