Song name
# A B C D E F G H I J K L M N O P Q R S T U V W X Y Z

Undercode - Final Fight tab

Hi! This is my first tab ever. I thought that it would be cool to start from
this song. Please don't blame me for my mistakes (there are some for sure).
I think that song was originally performed in Drop C#, but I prefer standard
tunings. Please feel free to use my work to make tab complete and, if you can,
put my name in the credits. Sorry for my bad English.

                                                                heat94
                                                                a.k.a
                                                                Heatseek3R

----------------------------------------------------------------------------

                   ===================================
                         UNDERCODE - Final Fight
                    (arranged for C# Standard tuning)
                   ===================================

TUNING: C# Standard [ C# F# B E G# C# ]

PM : palm muting
h : hammer-on
/ : slide

Intro

Riff 1a (Intro Riff)

1|-----------------|---------------------|-------------------|
2|-----------------|---------------------|-------------------|
3|-----------------|---------------------|-------------------|
4|-9---7/9---------|-12----10/12----9/10-|-7-9---7-9---------|
5|-7-7-5/7-7-7-7-7-|-10-10-8-/10-10-7/8--|-5/7-7-5/7-7-7-7-7-|
6|-----------------|---------------------|-------------------|
PM   .     .......       .        .            .     .......

Riff 1c

1|-----------------|
2|-----------------|
3|-----------------|
4|-7/5---5/4---2-4-|
5|-5/3-3-3/2-2-0h2-|
6|-----------------|
PM     .     .

Riff 1b (Chorus Riff)

1|-------------------|-----------------|---------------------|
2|-------------------|-----------------|---------------------|
3|-------------------|-----------------|---------------------|
4|-------------------|-----------------|---------------------|
5|-4---2-4-----------|-7----5/7----4/5-|-2-4---2-4-----------|
6|-2-2-0h2-0-0-000-0-|-5-55-3/5-55-2/3-|-0h2-2-0h2-0-0-000-0-|
PM   .     .........     ..     ..           .     .........

End Riff 1b with Riff 1c

//NOTE:
After 2nd chorus play Riff 1c two times

Riff 2 (Verse)
                                        __1-3rd Ending__
                                       /                \
1|-----------|------------|-----------|-----------------|
2|-----------|------------|-----------|-----------------|
3|-----------|------------|-----------|-----------------|
4|-----------|------------|-----------|-----------------|
5|-444-4-2-4-|-2-4----2-5-|-444-4-2-4-|-2-4-5-6-7-6-4-3-|
6|-222-2-0h2-|-0h2----0h3-|-222-2-0h2-|-0-2-3-4-5-4-2-1-|
PM .....       .      .     .....       ...............

   __Last Ending__
  /               \
1|-----------------|
2|-----------------|
3|-----------------|
4|-----------------|
5|-2-4-2-4-2-4-2-5-|
6|-0h2-0h2-0h2-0h3-|

Riff 2 endings might be wrong.


Riff 3 (Pre-Chorus)

1|-----------------------|-------|-----------------------|-------|
2|-----------------------|-------|-----------------------|-------|
3|-----------------------|-------|-----------------------|-------|
4|-----------------------|-------|-----------------------|-------|
5|-2-4-----2-4-----------|-5-5-5-|-2-4-----2-4-----------|-7-6-5-|
6|-0h2-2-2-0h2-2-2-2-2-2-|-3-3-3-|-0h2-2-2-0h2-2-2-2-2-2-|-5-4-3-|
PM     ...     .........               ...     .........

1|-----------------------|-------|-----------------------|---------------|
2|-----------------------|-------|-----------------------|--4-notes------|
3|-----------------------|-------|-----------------------|--/w-Pinch-H.--|
4|-----------------------|-------|-----------------------|--on-4th-------|
5|-2-4-----2-4-----------|-5-5-5-|-2-4-----2-4-----------|--or-5th-------|
6|-0h2-2-2-0h2-2-2-2-2-2-|-3-3-3-|-0h2-2-2-0h2-2-2-2-2-2-|--string-------|
PM     ...     .........               ...     .........   


Interlude

1|---------------|---------------|
2|---------------|---------------|
3|---------------|---------------|
4|-2--8--9--5-5\-|-2--8--9--8-8\-|
5|-2--8--9--5-5\-|-2--8--9--8-8\-|
6|-0--6--7--3-3\-|-0--6--7--6-6\-|


That's everything I figured out so far.

Tap to rate this tab
# A B C D E F G H I J K L M N O P Q R S T U V W X Y Z