Guitaretab - guitar tabs
Song name
# A B C D E F G H I J K L M N O P Q R S T U V W X Y Z

Underoath - Walking Away tab

 Underoath
 Walking Away
 Cries of the Past
 tabbed by:!normajean!


|---------------------------------------------|
|---------------------------------------------|
|---------------------------------------------|
|---3---3---3---3---3----4---4---4---4---4-3--|
|--1---1---1---1---1-1--1---1---1---1---1-----|
|-1---1---1---1---1----1---1---1---1---1------|
  ... ... ... ... .... ... ... ... ... ... .

|-----------------------------------|
|-----------------------------------|
|-----------------------------------|
|-11111111111111114444444444444444--|
|-11111111111111114444444444444444--|
|-11111111111111114444444444444444--|

|---------------------------------|
|---------------------------------|
|---------10---------------13-----| this comes in at 0:38
|-8---------------11--------------|
|---------------------------------|
|---------------------------------|

|-------------------------|
|-------------------------|
|-------------------------|this is played a bunch of times
|-0-1-0-4-0-3-0-1-0-6-0-4-|
|-------------------------|
|-------------------------|
  . . . . . . . . . . . .

|-------------------------|
|-------------------------|
|-------------------------|then you play this
|-0-1-0-4-0-3-0-1-0-6-0-4-|
|-0-1-0-4-0-3-0-1-0-6-0-4-|
|-0-1-0-4-0-3-0-1-0-6-0-4-|
  . . . . . . . . . . . .
[ Tab from: http://www.guitaretab.com/u/underoath/154290.html ]
|--------------------------------------------------|
|--------------------------------------------------|
|--------------------------------------------------|
|-------1-----4-----3-----------1-------8\-----6\--|
|-------1-----4-----3-----------1------------------|
|-0000001-----4-----3-----0000001---0-0----0-0-----|
  ......                  ......    . .    . .

|-----------------------------------|
|-----------------------------------|
|-----------------------------------|
|-000010000300005000000100-6----3---|
|--------------------------6----3---|
|--------------------------6----3---|

|----------------------------------------------|
|----------------------------------------------|
|----------------------------------------------|
|--------------------------------------------6-|
|--------------------------------------------6-|
|-111000666000111000666000111000666000111000-6-|
  ..........................................

|----------------------------------|---|
|----------------------------------|---|
|----------------------------------|---|
|-000010000300005000000100-6----3--|-0-|
|--------------------------6----3--|-0-|
|--------------------------6----3--|-0-|


im working on this solo. ill have it soon.


|---------------------------|
|-------44443333------------|
|-333333------------6666----|this is played in the drum solo
|---------------4444------0-|
|-------------------------0-|
|-------------------------0-|

|----------------------------------------------|
|----------------------------------------------|
|----------------------------------------------|
|-8888888p7h8p7777777h8p7\4444444h5p4h5555555--|
|----------------------------------------------|
|----------------------------------------------|


*ill update this when i have time*


. palm mute
\ slide down

this is all i have so far. sorry if you wanted more. its my 3rd tab for
Underoath and the first one for this song! yay!

if you have any questions,...(AIM: JonIsBeast87)
Related for Walking Away tab
Walking Away chords by Underoath