Guitaretab - guitar tabs
Song name
# A B C D E F G H I J K L M N O P Q R S T U V W X Y Z

Unhindered - No Other Name tab

the only part to this song were the chords so i got the solo for a second guitar and i 
them rated. i didnt want to write the structure so i
juss gave you the riffs so here.

No Guitar for Intro/Verse

Pre-Chorus

A little Distortion

e---------|
B---------|
G---------|
D---------| x1
A-/12b-\9-|
E---------|

Chorus - Keep Distortion and let ring all

e------------------------------------------------|
B------------------------------------------------|
G---------------------------2--------5-----------|
D-5-----------2-------------2----5---5-----------|
A-5-----------2-------------0----5---3-----------|
E-3-----------0------------------3---------------|
  God of Glory, Lord Most Holy, Emmanuel---------|
[ Tab from: http://www.guitaretab.com/u/unhindered/156420.html ]
e----------------------------------------------|
B----------------------------------------------|
G---7-----------------------7------------------|
D---7---------2-------------7------------------|
A---5---------2-------------5------------------|
E-------------0--------------------------------|
  Giver of Life, Light of the World------------|

e---------------------------------------------|
B---------------------------------------------|
G-2--------------------5---------7----2-------|
D-2----------5---------5---------7----2-------|
A-0----------5---------3---------5----0-------|
E------------3--------------------------------|
  And theres no other name, worthy of praise, but yours.


solo 1
e-----------------------------------------------------------------------|
B-----------------------------------------------------------------------|
G-----------------------------------------------------------------------|
D-------------------------------121212121212121212----------------------|
A--------------------------------------------------15151515151515151515-|
E-171717171717-1515151515151515-----------------------------------------|


solo 2
A-------------------------|------------------------------|
E-171717171717-15151515b--|--17171717151515151512121212--|


thats it if you want the structure and x's tell me and ill make them !
Related for No Other Name tab
No Other Name chords by Unhindered