Song name
# A B C D E F G H I J K L M N O P Q R S T U V W X Y Z

Union Underground - Turn Me On Mr. Deadman tab

BITCHIN' TABS

          URL: www.angelfire.com/goth/btab/
	EMAIL: btabmaster@hotmail.com

        THIS IS A BITCHIN' TABS EXCLUSIVE TAB

 ----------------------------------------------------------------------------------------------

	     SONG: Turn Me On Mr. Deadman
	     BAND: The Union Underground
	    ALBUM: An Education In Revolution
   TRANSCRIBED BY: Chris Frazier (elemenohpelmnop@aol.com)
	     DATE: 12-02-2K

 ----------------------------------------------------------------------------------------------

	TUNING: Drop d (D-A-D-G-B-E)



     RIFF 1:

     b=bend
     /=slide

    E|------------------------------|
    B|------------------------------|
    G|------------------------------| Gradually release the bend as you slide
    D|------------------------------| up the fretboard
    A|------------------------------|
    D|---555-444-333-444-555-7b/5---|

     RIFF 2:

    E|-----------|
    B|-----------|
    G|-------6---|
    D|-----5-----|
    A|---4-------|
    D|-----------|

     RIFF 3:

    E|--------------------------------------|
    B|--------------------------------------|
    G|-------------------------------6666---|
    D|---5-x-5-3-5-x-5-3-5-x-5-3-5-0-6666---|
    A|---5-x-5-3-5-x-5-3-5-x-5-3-5-0-4444---|
    D|---5-x-5-3-5-x-5-3-5-x-5-3-5-0--------|

     RIFF 4:

    E|----------------------------------------|
    B|----------------------------------------|
    G|----------------------------------------|
    D|---5-x-5-3-5-x-5-3-5-x-5-3-5-0--0-8-7---|
    A|---5-x-5-3-5-x-5-3-5-x-5-3-5-0--0-8-7---|
    D|---5-x-5-3-5-x-5-3-5-x-5-3-5-0--0-8-7---|

     RIFF 5

    E|--------|
    B|--------|
    G|--------| Let that G5 chord ring for a few notes
    D|----5---|
    A|----5---|
    D|----5---|

     RIFF 6:

    E|----------|
    B|----------|
    G|----------|
    D|---3-55---|
    A|---3-55---|
    D|---3-55---|

     RIFF 7: (w/ wah and flanger)

    E|-------------|
    B|-------------|
    G|-------------|
    D|---55-xxxx---|
    A|---55-xxxx---|
    D|---55-xxxx---|

     RIFF 8:

    E|-----------|
    B|-----------|
    G|-----------|
    D|---55-33---|
    A|---55-33---|
    D|---55-33---|
Tap to rate this tab
 
# A B C D E F G H I J K L M N O P Q R S T U V W X Y Z