Song name
# A B C D E F G H I J K L M N O P Q R S T U V W X Y Z

United Live - What The World Will Never Take tab

Intro/verse:

e|-------------------------------------------------------------|
H|-------------------------------------------------------------|
G|-------------------------------------------------------------|
D|-----7-6-6-6-67-----7-6-6-6-67-----7-6-6-6-67-----7-6-6-6-67-|
A|-------------------------------5-5------------5-5------------|
E|-5-5------------5-5------------------------------------------|


pre-chorus:

With all that fails to compare...
e|-----------------------------------------------------|  play this
H|-----------------------------------------------------|  several times
G|-------------------------------6-6-4-6-6-4-6-6-4-6-6-|  and listen to the
D|-----------------------------------------------------|  song for the
A|-----------------------------------------------------|  timing
E|-----------------------------------------------------|

the chords during chorus are strummed.

solo version 1:

e|-----5-----5---5-----5-7-8-7-5---------------------------------|(8or7b)
H|-7-7---7-7---7---6-6-------------------------------------------|
G|-----------------------------------6-----6---6-----8-----8---8-|
D|-------------------------------7-7---7-7---7---9-9---9-9---9---|
A|---------------------------------------------------------------|
E|---------------------------------------------------------------|

play this 2 times, then

e|---------------------------------------------|
H|---------------------------------------------|
G|-----8-----8---8-----8-----8---8-----8-----8-|
D|-9-9---9-9---9---9-9---9-9---9---9-9---9-9---|
A|---------------------------------------------|
E|---------------------------------------------|

solo version 2:

distorted
e|--------------------------------------------12----12----------------------|
H|--14v-14v-12-10-12--------10-12-12b14-10-14----14----12-10b12b10b12b10b12-|
G|-------------------11~-11-------------------------------------------------|
D|--------------------------------------------------------------------------|
A|--------------------------------------------------------------------------|
E|--------------------------------------------------------------------------|

e|--------11------12-14-14-17-17-17-14-14-12-12-------------------------|
H|-----12------14-------------------------------14-14-12-12-12-12-10-10-|
G|-11~------------------------------------------------------------------|
D|----------------------------------------------------------------------|
A|----------------------------------------------------------------------|
E|----------------------------------------------------------------------|

e|------------------------------------------------11--14-16-17-19-21v~-|
H|-10-12---------10-10-10-10-10-12-12-12-12-12-12----------------------|
G|-------11-9-11-------------------------------------------------------|
D|---------------------------------------------------------------------|
A|---------------------------------------------------------------------|
E|---------------------------------------------------------------------|

This should be correct, however it sounds really good and right.
The chords and lyrics of this song can be find at ultimate guitar or all over the net, 
i think it's not necessary to submit them here again.
Tap to rate this tab
# A B C D E F G H I J K L M N O P Q R S T U V W X Y Z