Song name
# A B C D E F G H I J K L M N O P Q R S T U V W X Y Z

Unkle - Broken chords

Help us improve GuitareTab! Take a short survey!
Highlighted       Show chord diagrams
----------------------------------------------------------------------------
                   Broken- UNKLE feat Gavin Clark
----------------------------------------------------------------------------

Tabbed by: jamie_633@hotmail.com
Tuning: Standard


Intro
Guitar line

e -----------------------------|
B -----------------------------|
G -----------------------------|
D -6-6-6-6-6-6-6-6-6-6-6-6-6-6-|
A -----------------------------|
E -----------------------------|

Base line (for guitar)
e -------------------------------------------------------------|
B -------------------------------------------------------------|
G -------------------6-6-6-4-4-4-------------------------------|
D ---6-6-6-4-4-4-----------------4-4-4-6-6-6-------------------|
A -------------------------------------------4-4-4-6-6-6-2-2-4-|
E -------------------------------------------------------------|

1st Verse
A#
Dead state I can feel the weight
D#                                  C#
Light streaming in through the open gate
A#
Tooth red score tearing up the floor
D#                                C#
out in the alley with the trigger drawn
A#
Numb hand I can see the strand
D#                              C#
Hold it together with a severed band
A#
Three lost years I've been crying here
D#                                C#
I'm over, I'm over, I'm over, I'm broken


Chorus
F      D#                      C#
Strung out on the wings of the dawn
            A#
Hole in the back, soul in the storm
F    D#                             C#
Torn down through the cracks in the dark
              A#
We're miles adrift we're inches apart

2nd verse
A#
I'm hit I can feel the grit
D#                           C#
Sat in the asher on a beaten brick
A#
Tooth red main running though the vein
D#                                C#
Out in the center with a mirrored cane
A#
Numb feet I can hear you speak
D#                              C#
Hold it together with a severed streak
A#
Three long years I've been crying here
D#                                C#
I'm over, I'm over, I'm over, I'm broken.

Chrorus 2
F      D#                      C#
Strung out on the wings of the dawn
             A#
Hole in the back, soul in the storm
F    D#                             C#
Torn down through the cracks in the dark
              A#
We're miles adrift we're inches apart
F     D#                    C#
Stood up on the side of the earth
       A#
thrown back to the track to the dirt
F     D#                  C#
tooth red, lose an hour a day
               A#
we're miles adrift, we're inches away

Bridge
Base line (for guitar)
e -------------------------------------------------------------|
B -------------------------------------------------------------|
G -------------------6-6-6-4-4-4-------------------------------|
D ---6-6-6-4-4-4-----------------4-4-4-6-6-6-------------------|
A -------------------------------------------4-4-4-6-6-6-2-2-4-|
E -------------------------------------------------------------|

Guitar
                     [B]
e -----------------------------|
B -----------------------------|
G -----------------------------|
D -----------------------------|
A -8-8-8-8-8-8-8-6-8-8(9)-6-8--|
E -----------------------------|

[B] = bend 8 to 9 (F to F#).

Chorus 3
F      D#                      C#
Strung out on the wings of the dawn
            A#
Hole in the back, soul in the storm
F    D#                             C#
Torn down through the cracks in the dark
              A#
We're miles adrift we're inches apart
F     D#                    C#
Stood up on the side of the earth
        A#
thrown back to the track to the dirt
F     D#                  C#
tooth red, lose an hour a day
               A#
we're miles adrift, we're inches away
F      D#                        C#

              A#
we're miles adrift, we're inches away
F      D#                        C#

              A#
we're miles adrift, we're inches away
F      D#                        C#

              A#
we're miles adrift, we're inches away
F      D#                        C#

              A#
we're miles adrift, we're inches away

Outro
F          D#      C#                  A#
   Hold it together, we're severed by...
F                  D#            C#         A#
   Came though the Blood.......
Related for Broken chords