Song name
# A B C D E F G H I J K L M N O P Q R S T U V W X Y Z

Unseen - 1000 Miles tab

1000 MILES - The Unseen

By:Steve PukeShoes81@aol.com

   Intro:
e|---------------------------------------------------------------------------|
B|---------------------------------------------------------------------------|
G|------11-11-11-11------------11--9--7-6------------------------------------|
D|--4-4-11-11-11-11--x 3--4-4--11--9--7-6------------------------------------|
A|--4-4--9--9--9--9-------4-4---9--7--5-4------------------------------------|
E|--2-2-------------------2-2------------------------------------------------|
  
   Verse:
e|---------------------------------------------------------------------------|
B|---------------------------------------------------------------------------|
G|------------- 7-7-7-7-7-------------9-9-9-9-9------------------------------|
D|---4-4-4-4-4- 7-7-7-7-7--7-7-7-7-7--9-9-9-9-9------------------------------|
A|---4-4-4-4-4- 5-5-5-5-5--7-7-7-7-7--7-7-7-7-7------------------------------|
E|---2-2-2-2-2-------------5-5-5-5-5-----------------------------------------|

   Chorus:
e|---------------------------------------------------------------------------|
B|---------------------------------------------------------------------------|
G|--11-11-11-11-11-11-11-11-11-11-11-11-11--11-9-7-6-------------------------|
D|--11-11-11-11-11-11-11-11-11-11-11-11-11--11-9-7-6-------------------------|
A|---9--9--9--9--9--9--9--9--9--9--9--9--9---9-7-5-4-------------------------|
E|---------------------------------------------------------------------------|

Ok, Is my first tabs, hopefully there are no mistakes.
Tap to rate this tab
 
# A B C D E F G H I J K L M N O P Q R S T U V W X Y Z