Song name
# A B C D E F G H I J K L M N O P Q R S T U V W X Y Z

Unseen - Paint It Black tab

Paint it black - The Unseen

 This song was originally by the Rolling Stones but this band did an awsome job covering it.

I'v been looking for this tab everywhere but couldn't find it so i made 1 for myself and 
else!!! I'm pretty sure it is 100% correct to! ARRR!!!

Standard Tuning

p= pull off
X= totally mute
h= hammer on
~= let ring out
*= palm multe

INTRO

Guitar 1
e)-0-0-0-0--0-0-0-0-0-0-0-0-0~----------------------------------|
b)-5-7-8-10-8-7-5-5-4-5-7-5-4~-4h6h7-7p6p4h6~-------------------|
d)--------------------------------------------------------------|
g)--------------------------------------------------------------|
a)--------------------------------------------------------------|
e)--------------------------------------------------------------|

e)--------------------------------------------------------------|
b)--------------------------------------------------------------|
d)-9-9-9-9-9-9-999-9-9-9-9-9-9-999------------------------------|
g)-9-9-9-9-9-9-999-9-9-9-9-9-9-999------------------------------|
a)-7-7-7-7-7-7-777-7-7-7-7-7-7-777------------------------------|
e)--------------------------------------------------------------|

Guitar 2

e)--------------------------------------------------------------|
b)--------------------------------------------------------------|
d)--------------------------------------------------------------|
g)--------------------------------------------------------------|
a)--------------------------------------------------------------|
e)--------------------------------------------------------------|

e)-0~--------------0~-------------------------------------------|
b)-0~--------------0~-------------------------------------------|
d)-0~--------------0~-------------------------------------------|
g)-2~--------------2~-------------------------------------------|
a)-2~--------------2~-------------------------------------------|
e)-0~--------------0~-------------------------------------------|

I see a red door and i want it painted black,
No colours anymore i want them to turn BLACK!

Guitar 1
e)----------------------------------------|
b)----------------------------------------|
d)-9-11-12-14-12-11-9-9-8-9-11-9-8~-------|
g)-x-x--x--x--x--x--x-x-x-x-x--x-x~-------|
a)-7-9--10-12-10-9--7-7-6-7-9--7-7~-------|
e)-0-0--0--0--0--0--0-0-0-0-0--0-0~-------|

e)----------------------------------------|
b)----------------------------------------|
d)-9-11-12-14-12-11-9-9-8-9-11-9-8~-------|
g)-x-x--x--x--x--x--x-x-x-x-x--x-x~-------|
a)-7-9--10-12-10-9--7-7-6-7-9--7-7~-------|
e)-0-0--0--0--0--0--0-0-0-0-0--0-0~-------|

Guitar 2
e)----------------------------------------|
b)----------------------------------------|
d)----------------------------------------|
g)----------------------------------------|
a)----------------------------------------|
e)-3333333333333333333333333333333333333--|
   *************************************
e)----------------------------------------|
b)----------------------------------------|
d)----------------------------------------|
g)----------------------------------------|
a)----------------------------------------|
e)-3333333333333333333333333333333333333--|
   *************************************

I see the girls walk dressed in their summer clothes!
I'll just turn my head until my darkness goes!

Guitar 1 and 2
e)-----------------------------------------------------------|
b)-----------------------------------------------------------|
d)-999-777-----777-9999999999-999-777-----777----------------|
g)-999-777-555-777-9999999999-999-777-555-777-777777-999999--|
a)-777-555-555-555-7777777777-777-555-555-555-777777-999999--|
e)---------333------------------------333-----555555-777777--|

I see a line of cars and they're all painted black,
With flowers and my love both never to come BACK!

Guitar 1
e)----------------------------------------|
b)----------------------------------------|
d)-9-11-12-14-12-11-9-9-8-9-11-9-8~-------|
g)-x-x--x--x--x--x--x-x-x-x-x--x-x~-------|
a)-7-9--10-12-10-9--7-7-6-7-9--7-7~-------|
e)-0-0--0--0--0--0--0-0-0-0-0--0-0~-------|

e)----------------------------------------|
b)----------------------------------------|
d)-9-11-12-14-12-11-9-9-8-9-11-9-8~-------|
g)-x-x--x--x--x--x--x-x-x-x-x--x-x~-------|
a)-7-9--10-12-10-9--7-7-6-7-9--7-7~-------|
e)-0-0--0--0--0--0--0-0-0-0-0--0-0~-------|

Guitar 2
e)----------------------------------------|
b)----------------------------------------|
d)----------------------------------------|
g)----------------------------------------|
a)----------------------------------------|
e)-3333333333333333333333333333333333333--|
   *************************************
e)----------------------------------------|
b)----------------------------------------|
d)----------------------------------------|
g)----------------------------------------|
a)----------------------------------------|
e)-3333333333333333333333333333333333333--|
   *************************************

I see people turn their heads and quickly look away!
Like a new born baby it just happens every day!

Guitar 1 and 2
e)-----------------------------------------------------------|
b)-----------------------------------------------------------|
d)-999-777-----777-9999999999-999-777-----777----------------|
g)-999-777-555-777-9999999999-999-777-555-777-777777-999999--|
a)-777-555-555-555-7777777777-777-555-555-555-777777-999999--|
e)---------333------------------------333-----555555-777777--|

I look inside myself and see my heart is black,
I see my red door and it has been painted BLACK!

Guitar 1
e)----------------------------------------|
b)----------------------------------------|
d)-9-11-12-14-12-11-9-9-8-9-11-9-8~-------|
g)-x-x--x--x--x--x--x-x-x-x-x--x-x~-------|
a)-7-9--10-12-10-9--7-7-6-7-9--7-7~-------|
e)-0-0--0--0--0--0--0-0-0-0-0--0-0~-------|

e)----------------------------------------|
b)----------------------------------------|
d)-9-11-12-14-12-11-9-9-8-9-11-9-8~-------|
g)-x-x--x--x--x--x--x-x-x-x-x--x-x~-------|
a)-7-9--10-12-10-9--7-7-6-7-9--7-7~-------|
e)-0-0--0--0--0--0--0-0-0-0-0--0-0~-------|

Guitar 2
e)----------------------------------------|
b)----------------------------------------|
d)----------------------------------------|
g)----------------------------------------|
a)----------------------------------------|
e)-3333333333333333333333333333333333333--|
   *************************************
e)----------------------------------------|
b)----------------------------------------|
d)----------------------------------------|
g)----------------------------------------|
a)----------------------------------------|
e)-3333333333333333333333333333333333333--|
   *************************************

Maybe then I'll fade away and not have to face the facts!
It's not easy facing up when your whole world is black!

Guitar 1 and 2
e)-----------------------------------------------------------|
b)-----------------------------------------------------------|
d)-999-777-----777-9999999999-999-777-----777----------------|
g)-999-777-555-777-9999999999-999-777-555-777-777777-999999--|
a)-777-555-555-555-7777777777-777-555-555-555-777777-999999--|
e)---------333------------------------333-----555555-777777--|

No more will my green sea go turn a deeper blue,
I could not forsee this thing happening to YOU!

Guitar 1
e)----------------------------------------|
b)----------------------------------------|
d)-9-11-12-14-12-11-9-9-8-9-11-9-8~-------|
g)-x-x--x--x--x--x--x-x-x-x-x--x-x~-------|
a)-7-9--10-12-10-9--7-7-6-7-9--7-7~-------|
e)-0-0--0--0--0--0--0-0-0-0-0--0-0~-------|

e)----------------------------------------|
b)----------------------------------------|
d)-9-11-12-14-12-11-9-9-8-9-11-9-8~-------|
g)-x-x--x--x--x--x--x-x-x-x-x--x-x~-------|
a)-7-9--10-12-10-9--7-7-6-7-9--7-7~-------|
e)-0-0--0--0--0--0--0-0-0-0-0--0-0~-------|

Guitar 2

e)----------------------------------------|
b)----------------------------------------|
d)-9~-------------------------------------|
g)-9~---------------9~--------------------|
a)-7~---------------9~--------------------|
e)------------------7~--------------------|

e)----------------------------------------|
b)----------------------------------------|
d)-9~-------------------------------------|
g)-9~---------------9~--------------------|
a)-7~---------------9~--------------------|
e)------------------7~--------------------|

If I look hard enough into the setting sun!
My love will laugh with me before the morning comes!

Guitar 1 and 2
e)-----------------------------------------------------------|
b)-----------------------------------------------------------|
d)-999-777-----777-9999999999-999-777-----777----------------|
g)-999-777-555-777-9999999999-999-777-555-777-777777-999999--|
a)-777-555-555-555-7777777777-777-555-555-555-777777-999999--|
e)---------333------------------------333-----555555-777777--|

Hmm,Hmm,Hmm.....

Guitar 1 or 2
e)-----------------------------------------------------------|
b)-----------------------------------------------------------|
d)-9-9999-9999-9999999999------------------------------------|
g)-9-9999-9999-9999999999-9-9999-9999-9999999999-------------|
a)-7-7777-7777-7777777777-9-9999-9999-9999999999-------------|
e)------------------------7-7777-7777-7777777777-------------|

e)-----------------------------------------------------------|
b)-----------------------------------------------------------|
d)-9-9999-9999-9999999999------------------------------------|
g)-9-9999-9999-9999999999-9-9999-9999-9999999999-------------|
a)-7-7777-7777-7777777777-9-9999-9999-9999999999-------------|
e)------------------------7-7777-7777-7777777777-------------|

I wanna see it painted, painted black!
Black as night, black as coal!
I wanna see the sun blotted from the sky!
I wanna see it painted, painted, painted, painted BLACK!

Guitar 1
e)----------------------------------------|
b)----------------------------------------|
d)-9-11-12-14-12-11-9-9-8-9-11-9-8~-------|
g)-x-x--x--x--x--x--x-x-x-x-x--x-x~-------|
a)-7-9--10-12-10-9--7-7-6-7-9--7-7~-------|
e)-0-0--0--0--0--0--0-0-0-0-0--0-0~-------|

e)----------------------------------------|
b)----------------------------------------|
d)-9-11-12-14-12-11-9-9-8-9-11-9-8~-------|
g)-x-x--x--x--x--x--x-x-x-x-x--x-x~-------|
a)-7-9--10-12-10-9--7-7-6-7-9--7-7~-------|
e)-0-0--0--0--0--0--0-0-0-0-0--0-0~-------|

Guitar 2
e)----------------------------------------|
b)----------------------------------------|
d)----------------------------------------|
g)----------------------------------------|
a)----------------------------------------|
e)-3333333333333333333333333333333333333--|
   *************************************
e)----------------------------------------|
b)----------------------------------------|
d)----------------------------------------|
g)----------------------------------------|
a)----------------------------------------|
e)-3333333333333333333333333333333333333--|
   *************************************

I wanna see it painted, painted black!
Black as night, black as coal!
I wanna see the sun blotted from the sky!
I wanna see it painted, painted, painted, painted BLACK!

Guitar 1
e)----------------------------------------|
b)----------------------------------------|
d)-9-11-12-14-12-11-9-9-8-9-11-9-8~-------|
g)-x-x--x--x--x--x--x-x-x-x-x--x-x~-------|
a)-7-9--10-12-10-9--7-7-6-7-9--7-7~-------|
e)-0-0--0--0--0--0--0-0-0-0-0--0-0~-------|

e)----------------------------------------|
b)----------------------------------------|
d)-9-11-12-14-12-11-9-9-8-9-11-9-8~-------|
g)-x-x--x--x--x--x--x-x-x-x-x--x-x~-------|
a)-7-9--10-12-10-9--7-7-6-7-9--7-7~-------|
e)-0-0--0--0--0--0--0-0-0-0-0--0-0~-------|

Guitar 2
e)----------------------------------------|
b)----------------------------------------|
d)----------------------------------------|
g)----------------------------------------|
a)----------------------------------------|
e)-3333333333333333333333333333333333333--|
   *************************************
e)----------------------------------------|
b)----------------------------------------|
d)----------------------------------------|
g)----------------------------------------|
a)----------------------------------------|
e)-3333333333333333333333333333333333333--|
   *************************************

BLACK!!!!!!!!!!!!!!!!!!!!!!!!!!!!!!

Guitar 1
e)----------------------------------------|
b)----------------------------------------|
d)-9-11-12-14-12-11-9-9-8-9-11-9-8~-------|
g)-x-x--x--x--x--x--x-x-x-x-x--x-x~-------|
a)-7-9--10-12-10-9--7-7-6-7-9--7-7~-------|
e)----------------------------------------|

e)----------------------------------------|
b)----------------------------------------|
d)-9-11-12-14-12-11-9-9-8-9-11-9-8~-------|
g)-x-x--x--x--x--x--x-x-x-x-x--x-x~-------|
a)-7-9--10-12-10-9--7-7-6-7-9--7-7~-------|
e)----------------------------------------|

Guitar 2

e)-----------------------------------------------------------|
b)-----------------------------------------------------------|
d)-9-9999-9999-9999999999------------------------------------|
g)-9-9999-9999-9999999999-9-9999-9999-9999999999-------------|
a)-7-7777-7777-7777777777-9-9999-9999-9999999999-------------|
e)------------------------7-7777-7777-7777777777-------------|

e)-----------------------------------------------------------|
b)-----------------------------------------------------------|
d)-9-9999-9999-9999999999------------------------------------|
g)-9-9999-9999-9999999999-9-9999-9999-9999999999-------------|
a)-7-7777-7777-7777777777-9-9999-9999-9999999999-------------|
e)------------------------7-7777-7777-7777777777-------------|

Both guitar end on...

e)---------------------------------------|
b)---------------------------------------|
d)-9~------------------------------------|
g)-9~------------------------------------|
a)-7~------------------------------------|
e)---------------------------------------|
Tap to rate this tab
# A B C D E F G H I J K L M N O P Q R S T U V W X Y Z