Song name
# A B C D E F G H I J K L M N O P Q R S T U V W X Y Z

Unseen - Beat It tab

Artist:  The Unseen
Song:  Beat It
Album:  So This is Freedom?
Track:  14


Chords:

E5  (x799xx)
D5  (x577xx)
C5  (x355xx)
G5  (x10-12-12xx)


Intro:

E|----------------------------------------------------------------|
B|----------------------------------------------------------------|
G|--12-12--9-9----12-12---7---------------------------------------|
D|--12-12--9-9----12-12---7---------------------------------------|
A|--10-10--7-7----10-10---5---------------------------------------|
E|----------------------------------------------------------------|


Intro 2/Chorus

E|----------------------------------------------------------------|
B|----------------------------------------------------------------|
G|----------------------------------------------------------------|
D|----------5-2--2--4-2-0-0---------------------------------------|
A|-------2--------------------------------------------------------|
E|--0--3----------------------------------------------------------|


Verse:

E|-----------------------------------------------------------------|
B|-----------------------------------------------------------------|
G|---9-9-9---7-7-7----9-9-9---7-7-7----5-5-5---7-7-7---9-9-9--7-7-7|
D|---9-9-9---7-7-7----9-9-9---7-7-7----5-5-5---7-7-7---9-9-9--7-7-7|
A|---7-7-7---5-5-5----7-7-7---5-5-5----3-3-3---5-5-5---7-7-7--5-5-5|
E|-----------------------------------------------------------------|


That's it.  This is a great cover.  Rate this please.
Tap to rate this tab
# A B C D E F G H I J K L M N O P Q R S T U V W X Y Z