Song name
# A B C D E F G H I J K L M N O P Q R S T U V W X Y Z

Unseen - You Can Never Go Home tab

Tabbed by:Anthony W
Email:

Tuning:Standard

e|---------2-------2----------------3----------------2-----------------------|
B|---------3------------3----------------3----------------3------------------|
G|---------2------------------2---------------2---------------2--------------|
D|---------------------------------------------------------------------------|
A|---------------------------------------------------------------------------|
E|---------------------------------------------------------------------------|
strum these chords 
e|-------2------3------------------------------------------------------------|
B|-------3------3------------------------------------------------------------|
G|-------2------2------------------------------------------------------------|
D|---------------------------------------------------------------------------|
A|---------------------------------------------------------------------------|
E|---------------------------------------------------------------------------|



| /  slide up
| \  slide down
| h  hammer-on
| p  pull-off
| ~  vibrato
| +  harmonic
| x  Mute note
Tap to rate this tab
# A B C D E F G H I J K L M N O P Q R S T U V W X Y Z