Song name
# A B C D E F G H I J K L M N O P Q R S T U V W X Y Z

Unwound - Next Exit tab

Artist: Unwound
Song: "Next Exit"
Album: Repetition (1996)



Tuning: F# A D G B E



Verse:
E |------------------------------------------------|
B |------------------------------------------------|
G |------------(0)-------------------------7--7----|
D |-11----------11-------------11-11-11-11-7--7----|
A |-9-----------9--------------9--9--9--9--x--x----|
F#|-0-----0--0--0-----0--0--0--10-10-10-10-8--8--0-|
+
E |------------------------------------------------|
B |------------(0)---------------------------------|
G |(0)----------0----------------------------------|
D |-10----------10-------------12-12-12-12-14-14---|
A |-x-----------x--------------x--x--x--x--x--x----|
F#|-10----10-10-10----10-10-10-12-12-12-12-12-12-0-|



Interlude I:
E |------------------------------------------------|
B |------------------------------------------------|
G |------------------------------------------------|
D |-6--------6----------------/14-------14----14\--|
A |-4--------4----------------/12-12-12-12-12-12\--|
F#|----5--5-(0)---------------/14-14-14----14------|
+
E |------------------------------------------------|
B |---------------------------------------(0)------|
G |----------------------------7b-------8br0-------|
D |-6--------6-----------------6-----------5-------|
A |-4--------4-------------------------------------|
F#|----5--5-(0)------------------------------------|
+
E |------------------------------------------------|
B |------------------------------------------------|
G |------------------------------------------------|
D |-6-------------------------/14-------14----14\--|
A |-4-------(4)---------------/12-12-12-12-12-12\--|
F#|----5--5--0----------------/14-14-14----14------|
+
E |------------------------------------------------|
B |--------------0---------------------------(0)---|
G |-------------0--------------8b-------5b---r0----|
D |-6----------6---------------6--------------5----|
A |-4---------4------------------------------------|
F#|----5--5--0-------------------------------------|
+
E |------------------------------------------------|
B |-------------0----------------------------------|
G |------------0-----------------------------------|
D |-6---------6---------------/14-------14----14\--|
A |-4--------4----------------/12-12-12-12-12-12\--|
F#|----5--5-(0)---------------/14-14-14----14------|
+
E |------------------------------------------------|
B |----------------------------------------0-------|
G |-------------0--------------8b-------5br0-------|
D |-6----------6---------------6-----------5-------|
A |-4---------4------------------------------------|
F#|----5--5--0-------------------------------------|
+
E |------------------------------------------------|
B |-------------0----------------------------------|
G |------------0-----------------------------------|
D |-6---------6---------------/14-------14-14-14\--|
A |-4--------4----------------/12-12-12-12-12-12\--|
F#|----5--5-(0)---------------/14-14-14-------14\--|
+
E |------------------------------------------------|
B |-------------------------------------------0----|
G |-------------0--------------8b-------8b---r0----|
D |-6----------6---------------6--------6----(6)---|
A |-4---------4------------------------------------|
F#|----5--5--0-------------------------------------|



Interlude II:
E |------------------------------------------------|
B |------------------------------------------------|
G |------------------------------------------------|
D |-6--------6----------------/14-------14----14\--|
A |-4--------4----------------/12-12-12-12-12-12\--|
F#|----5--5-(0)---------------/14-14-14----14------|
+
E |------------------------------------------------|
B |-------------------------------------4----(0)---|
G |-0----------0---------------7b---------r7--0----|
D |-6---------6----------------6--------------6----|
A |-4--------4-------------------------------------|
F#|----5--5-(0)------------------------------------|
+
E |------------------------------------------------|
B |------------0-----------------------------------|
G |---0-------0------------------------------------|
D |--6-------6----------------/14-------14----14\--|
A |-4-------(4)---------------/12-12-12-12-12-12\--|
F#|----5--5-(0)---------------/14-14-14----14-0----|
+
E |------------------------------------------------|
B |---------------------------------------------(0)|
G |-------------0--------------7--7b^7^r7--7b^7^r0-|
D |------------6---------------6--------6----------|
A |-----------4------------------------------------|
F#|----5--5--0-------------------------------------|
+
+
E |------------------------------------------------|
B |---0---------0----------------------------------|
G |--0---------0-----------------------------------|
D |-6---------6---------------/14-------14----14\--|
A |----------4----------------/12-12-12-12-12-12\--|
F#|----5--5-(0)---------------/14-14-14----14------|
+
E |------------------------------------------------|
B |-------------------------------------------0----|
G |----------------------------7--7b^7--8b---r0----|
D |----------6-----------------9--9--9--6-----5----|
A |-4--------4-------------------------------------|
F#|-0--5--5--0-------------------------------------|
+
E |------------------------------------------------|
B |------------------------------------------------|
G |------------0-----------------------------------|
D |-6---------6---------------/14-------14----14\--|
A |-4--------4----------------/12-12-12-12-12-12\--|
F#|----5--5-(0)---------------/14-14-14----14-0----|
+
E |------------------------------------------------|
B |-------------------------------------------0----|
G |-------------0--------------7b-------8b---r0----|
D |------------6---------------6--------6----(6)---|
A |-4---------4------------------------------------|
F#|----5--5--0-------------------------------------|


Bridge:
E |-------9----------------------------------------|
B |-7--------------------------0--------------0----|
G |-x--------8B----------------0--------------0----|
D |-6-----------------6b------r0--------------0----|
A |-x-----------------------------------5b-------0-|
F#|-0----------------------------------------------|
+
E |------------------------------------------------|
B |-------------------0----------------------------|
G |----------2--------x----------------------------|
D |------------------(0)---------------------------|
A |-3~---------------------------------------------|
F#|------------------------------------------------|
+
E |------------------------------------------------|
B |-------------------------------------------0----|
G |-7b-------9b-------------------------------0----|
D |-6-----------------------------------------0----|
A |-x-----------------7b-------9b------/10b--------|
F#|-0----------------------------------------------|
+
E |------------------------------------------------|
B |-------------------0----------------------------|
G |----------2-------------------------------------|
D |------------------------------------------------|
A |-3~---------------------------------------------|
F#|------------------------------------------------|
+
E |------------------------------------------------|
B |------------------------------------------------|
G |-7~-------9~------------------------------------|
D |-6--------------------------5b-------8b-----(r8)|
A |-x-----------------7b---------------------------|
F#|-0----------------------------------------------|
+
E |------------------------------------------------|
B |-------------------0----------------------------|
G |----------2-------------------------------------|
D |------------------------------------------------|
A |-3~---------------------------------------------|
F#|------------------------------------------------|
+
E |------------------------------------------------|
B |-------------------------------------------0----|
G |-7~-------9~-------------------------------0----|
D |-6-----------------------------------8b---r0(r8)|
A |-x-----------------7b-------5b------------------|
F#|-0----------------------------------------------|
+
E |------------------------------------------------|
B |-------------------0----------------------------|
G |----------2-------------------------------------|
D |------------------------------------------------|
A |-3~---------------------------------------------|
F#|------------------------------------------------|




Outro:
E |------------------------------------------------|
B |------------------------------------------------|
G |-------------------------------7b----0----------|
D |-4-----------4-----4--4-----4--4-----5----------|
A |-4-----------4-----4--4-----4--4----------------|
F#|-0-----------0-----0--0-----0--0----------------|
+
 * slow bend and release with feedback
E |------------------------------------------------|
B |------------------------------------------------|
G |-5b---------------------r5--)))-----------------|
D |------------------------------------------------|
A |------------------------------------------------|
F#|------------------------------------------------|
+
E |------------------------------------------------|
B |------------------------------------------------|
G |-------------------------------6b---------------|
D |-4-----------4-----4--4-----4--------4----------|
A |-4-----------4-----4--4-----4--------4----------|
F#|-0-----------0-----0--0-----0--------0----------|
+
 * slow bend and release with feedback
E |------------------------------------------------|
B |------------------------------------------------|
G |-7b---------------------r7--)))-----------------|
D |------------------------------------------------|
A |------------------------------------------------|
F#|------------------------------------------------|
+
E |------------------------------------------------|
B |------------------------------------------------|
G |-------------------------5b---------------------|
D |-4-----------4-----4--4-----4--------4----------|
A |-4-----------4-----4--4-----4--------4----------|
F#|-0-----------0-----0--0-----0--------0----------|
+
 * release with feedback throughout
E |------------------------------------------------|
B |------------------------------------------------|
G |r5--)))-----------------------------------------|
D |------------------------------------------------|
A |------------------------------------------------|
F#|------------------------------------------------|
+
E |------------------------------------------------|
B |--------------------------------------0---------|
G |--------------------------------------0---------|
D |-4-----------4-----4--4--x\-----x/----0---------|
A |-4-----------4-----4--4--x\-----x/--------------|
F#|-0-----------0-----0--0-------------------------|
+
 * open string feedback and pick scrapes throughout to fade out ending
E |------------------------------------------------|
B |-0--)))-----------------------------------------|
G |-0--)))-----------------------------------------|
D |-0--)))-------------------------x\-x/-x-\-------|
A |--------------------------------x\-x/-x-\-------|
F#|------------------------------------------------|



Song Structure:
Verse x 4
Interlude I
Verse x 4
Interlude II
Bridge
Outro

There is a second guitar track throughout, especially noticeable during the Bridge when 
plays similar but different lines.  I know them, but didn't bother tabbing them out 
because you have to play one or the other.  Let me know if you really want me to add them.



That's it.  Please leave any comments, questions, or requests.  Cheers!
-Bennyshambles78-
Tap to rate this tab
 
# A B C D E F G H I J K L M N O P Q R S T U V W X Y Z