Song name
# A B C D E F G H I J K L M N O P Q R S T U V W X Y Z

Unwritten Law - Up All Night tab

Artsist: Unwritten Law
Song: Up All Night
CD: Music In High Places
Tabbed By: Cale and "Lucky"

This is the 99% correct tab for Up All Night by Un written Law. It is off of
MUSIC IN HIGH PLACES! The tab is meant for one acoustic guitar in standard
tuning. Enjoy.....

Intro

[--3--------3--------3---------3--------3---------------------]
[--4--------4--------3---------4--------4---------------------]
[--5--x3-- -3--x4-- -4---x1--- 5--x3----3--x1-----------------]
[--5--------6--------3---------5--------6-------3-3-5-5-6-----]
[--3--------3--------5---------3--------3-------3-3-5-5-6-----]
[--------------------------------------------- -3-3-5-5-6-----]


Verse

[--3------3------3-------3------3-----3------3------3------3------3------3-----]
[--4------4------3-------4------4-----3------4------4------3------4------4-----]
[--5--x3--3--x4--4--x1---5--x3--3--x4-3--x2--5--x3--3--x4--4--x1--5--x3--3--x1-]
[--5------6------3-------5------6-----6------5------6------3------5------6-----]
[--3------3------5-------3------3-----3------3------3------5------3------3-----]
[------------------------------------------------------------------------------]

Then

[-3-3-5-5-6-]
[-3-3-5-5-6-]
[-3-3-5-5-6-]


Chorus -(Figure out the rythm and stuff by listening to the CD)

[-----3---4---6-----------]
[-8---4---4---6-----------]
[-8---5---5---7----x2-----]
[-8---5---6---8-----------]
[-6---3---6---8-----------]
[---------4---6-----------]

Then

[--3--------3--------3---------3--------3---------------------]
[--4--------4--------3---------4--------4---------------------]
[--5--x3-- -3--x4-- -4---x1----5--x3----3--x1-----------------]
[--5--------6--------3---------5--------6-------3-3-5-5-6-----]
[--3--------3--------5---------3--------3-------3-3-5-5-6-----]
[--------------------------------------------- -3-3-5-5-6-----]


Then (the verse again)

[--3------3------3-------3------3-----3------3------3------3------3------3-----]
[--4------4------3-------4------4-----3------4------4------3------4------4-----]
[--5--x3--3--x4--4--x1---5--x3--3--x4-3--x2--5--x3--3--x4--4--x1--5--x3--3--x1-]
[--5------6------3-------5------6-----6------5------6------3------5------6-----]
[--3------3------5-------3------3-----3------3------3------5------3------3-----]
[------------------------------------------------------------------------------]

Then


[-3-3-5-5-6-]
[-3-3-5-5-6-]
[-3-3-5-5-6-]


Chorus

[-----3---4---6-----------]
[-8---4---4---6-----------]
[-8---5---5---7----x2-----]
[-8---5---6---8-----------]
[-6---3---6---8-----------]
[---------4---6-----------]


Now ( figure out the # of times and rythm yourself!)

[---------------------------------]
[---------------------------------]
[-5-8--------------------8-7-4----]
[-5-8-3-6--x3--6-5-------8-7-4----]
[-3-6-3-6------6-5---x4--6-5-2----]
[-----1-4------4-3----------------]


Next

[--------------------4-----4-------------------]
[---   4-----4-----5--5--5--5------------------]
[---  5- 5--5--5--6-----6---------5-----7------]
[---5---- 5-----------------------6--x2-8--x2--]
[---------------------------------6-----8------]
[---------------------------------4-----6------]


Verse

[--3------3------3-------3------3-----3------3------3------3------3------3-----]
[--4------4------3-------4------4-----3------4------4------3------4------4-----]
[--5--x3--3--x4--4--x1---5--x3--3--x4-3--x2--5--x3--3--x4--4--x1--5--x3--3--x1-]
[--5------6------3-------5------6-----6------5------6------3------5------6-----]
[--3------3------5-------3------3-----3------3------3------5------3------3-----]
[------------------------------------------------------------------------------]

Then


[-3-3-5-5-6-]
[-3-3-5-5-6-]
[-3-3-5-5-6-]

Chorus

[-----3---4---6-----------]
[-8---4---4---6-----------]
[-8---5---5---7----x2-----]
[-8---5---6---8-----------]
[-6---3---6---8-----------]
[---------4---6-----------]


Ending ( figure out the # of times and rythm yourself!)

[---------------------------------]
[---------------------------------]
[-5-8--------------------8-7-4----]
[-5-8-3-6--x3--6-5-------8-7-4----]
[-3-6-3-6------6-5---x4--6-5-2----]
[-----1-4------4-3----------------]
Tap to rate this tab
# A B C D E F G H I J K L M N O P Q R S T U V W X Y Z