Song name
# A B C D E F G H I J K L M N O P Q R S T U V W X Y Z

Uriah Heep - Wizard tab

                                        THE WIZARD
                                      BY: URIAH HEEP

1)--2-----2-----3p2---0p2----------------------------2--|
2)----3-----3-------3-----3-------1-------0----------3--|
3)------2-----2-----------------0-------0------------2--|
4)--0-------------------------2-------0--------------0--|
5)--------------------------3-------2-------2-0-2--0----|
6)------------------------------------------------------|

1)--2-----2-----3p2---0p2----------------------------2--|
2)----3-----3-------3-----3-------1-------0----------3--|
3)------2-----2-----------------0-------0------------2--|
4)--0-------------------------2-------0--------------0--|
5)--------------------------3-------2-------2-0-2--0----|
6)------------------------------------------------------|
      D                      D-       C         Ds4
E-----2----2-----2--2--3--2--0--2-----0-0-0-0-----------------2----
B-----3----3-----3--3--3--3--3--3-----1-1-1-1---0-0-0-0--0-0--3----
G-----2----2-----2--2--2--2--2--2-----0-0-0-0---0-0-0-0--0-0--2----
D-----0----0-----0--0--0--0--0--0-----2-2-2-2---0-0-0-0--0-0--0----
A-------------------------------------3-3-3-3---2-2-2-2--2-2-------
E------------------------------------------------------------------

D          Ds4    D- D C   G      D
He was the wizard of a thousand years
D                Ds4      D-  D      C  G   D
and I chanced to meet him one night, wandering.
C          G             C        G
He told me tales, and he drank my wine.
D         Ds4   D-  D     G    D 
Me and my magic man kinda feel fine.

He had a cloak of gold and eyes of fire
and as he spoke I felt a keen desire
to free the world of its fear and hate
and help the people to feel free again

 
1)--2-----2-----3p2---0p2----------------------------2--|
2)----3-----3-------3-----3-------1-------0----------3--|
3)------2-----2-----------------0-------0------------2--|
4)--0-------------------------2-------0--------------0--|
5)--------------------------3-------2-------2-0-2--0----|
6)------------------------------------------------------|

1)--2-----2-----3p2---0p2----------------------------2--|
2)----3-----3-------3-----3-------1-------0----------3--|
3)------2-----2-----------------0-------0------------2--|
4)--0-------------------------2-------0--------------0--|
5)--------------------------3-------2-------2-0-2--0----|
6)------------------------------------------------------|
      D                      D-       C         Ds4
E-----2----2-----2--2--3--2--0--2-----0-0-0-0-----------------2----
B-----3----3-----3--3--3--3--3--3-----1-1-1-1---0-0-0-0--0-0--3----
G-----2----2-----2--2--2--2--2--2-----0-0-0-0---0-0-0-0--0-0--2----
D-----0----0-----0--0--0--0--0--0-----2-2-2-2---0-0-0-0--0-0--0----
A-------------------------------------3-3-3-3---2-2-2-2--2-2-------
E------------------------------------------------------------------


Why dont we listen to the voices in our hearts
'cos then I know we'd find we're not so far apart
everybody's got to be happy, everyone should sing
for we know the joy of life is the peace that love can bring

So spoke the wizard from his mountain home.
The vision of his wisdom means we'll never be alone
and I will dream of that magic night
and a million silver stars that guide us with their light

For eny comments e-mail me at r_desaulniers@hotmail.com
Tap to rate this tab
# A B C D E F G H I J K L M N O P Q R S T U V W X Y Z