Song name
# A B C D E F G H I J K L M N O P Q R S T U V W X Y Z

Urszula - Dmuchawce Latawce Wiatr tab

e---------------------------------|--------------------------|
B---------0-----------------------|--------------------------|
G--0--0-----2--0------------------|----0---------------------|
D-------0---------2---------------|--0---4-0-2---------------|
A---------------------------------|--------------------------|
E---------------------------------|--------------------------|


e---------------------------------|--------------------------|
B----------1-0---0----------------|----0---------------------|
G-2--2---------2---0--------------|-0----2-0-----------------|
D-------2-------------------------|----------3---------------|
A---------------------------------|--------------------------|
E---------------------------------|--------------------------|


e---------------------------------|--------------------------|
B---------0-----------------------|--------------------------|
G--0--0-----2--0------------------|-0---0--------------------|
D-------0---------2---------------|--------4---4--2--2--0----|
A---------------------------------|--------------------------|
E---------------------------------|--------------------------|

e---------------------------------|--------------------------|
B---------------------------------|--------------------------|
G---------------------------------|-0-0-3-------0-0-3--------|
D---0-2-0-3-2-0-------------------|------0-3-----------0-3---|
A-3-------------3-----------------|--------------------------|
E---------------------------------|--------------------------|

e---------------------------------|
B--------1------------------------|
G--2--2-------0-------------------|
D----------2----------------------|
A---------------------------------|
E---------------------------------|

e---------------------------------|
B--------1------------------------|
G--2--2-------0-------------------|
D----------2----------------------|
A---------------------------------|
E---------------------------------|


e---------------------------------|
B---------------------------------|
G----0--2-------------------------|
D-4-------------------------------|
A---------------------------------|
E---------------------------------|


e---------------------------------|--------------------------|
B---------0-----------------------|--------------------------|
G--0--0-----2--0------------------|-0---0--------------------|
D-------0---------2---------------|--------4---4--2--2--0----|
A---------------------------------|--------------------------|
E---------------------------------|--------------------------|


e---------------------------------|--------------------------|
B---------------------------------|--------------------------|
G---------------------------------|-0-0-3-------0-0-3--------|
D---0-2-0-3-2-0-------------------|------0-3-----------0-3---|
A-3-------------3-----------------|--------------------------|
E---------------------------------|--------------------------|

e---------------------------------|
B--------1------------------------|
G--2--2-------0-------------------|
D----------2----------------------|
A---------------------------------|
E---------------------------------|

e---------------------------------|
B--------1------------------------|
G--2--2-------0-------------------|
D----------2----------------------|
A---------------------------------|
E---------------------------------|


e---------------------------------|
B---------------------------------|
G----0--2-------------------------|
D-4-------------------------------|
A---------------------------------|
E---------------------------------|

e---------------------------------|
B-----0---------------------------|
G--0---------0--------------------|
D-------0--2-----0----------------|
A--------------2------------------|
E---------------------------------|

e---------------------------------|
B-----0---------------------------|
G--0---------0--------------------|
D-------0--2-----0----------------|
A--------------2------------------|
E---------------------------------|


e---------------------------------|
B--------1------------------------|
G--2--2-------0-------------------|
D----------2----------------------|
A---------------------------------|
E---------------------------------|


e---------------------------------|
B--------1------------------------|
G--2--2-------0-------------------|
D----------2----------------------|
A---------------------------------|
E---------------------------------|


e---------------------------------|
B---------------------------------|
G----0--2-------------------------|
D-4-------------------------------|
A---------------------------------|
E---------------------------------|


e---------------------------------|
B-----0---------------------------|
G--0---------0--------------------|
D-------0--2-----0----------------|
A--------------2------------------|
E---------------------------------|

e---------------------------------|
B-----0---------------------------|
G--0---------0--------------------|
D-------0--2-----0----------------|
A--------------2------------------|
E---------------------------------|

e---------------------------------|
B-----0---------------------------|
G--0---------0--------------------|
D-------0--2-----0----------------|
A--------------2------------------|
E---------------------------------|

e---------------------------------|
B-----0--1------------------------|
G--2---------0--------------------|
D---------2-----------------------|
A---------------------------------|
E---------------------------------|

e---------------------------------|
B-----0--1------------------------|
G--2---------0--------------------|
D---------2-----------------------|
A---------------------------------|
E---------------------------------|

e---------------------------------|
B---------------------------------|
G----0--2-------------------------|
D-4-------------------------------|
A---------------------------------|
E---------------------------------|

e---------------------------------|--------------------------|
B---------0-----------------------|--------------------------|
G--0--0-----2--0------------------|----0---------------------|
D-------0---------2---------------|--0---4-0-2---------------|
A---------------------------------|--------------------------|
E---------------------------------|--------------------------|


e---------------------------------|--------------------------|
B----------1-0---0----------------|----0---------------------|
G-2--2---------2---0--------------|-0----2-0-----------------|
D-------2-------------------------|----------3---------------|
A---------------------------------|--------------------------|
E---------------------------------|--------------------------|


e---------------------------------|--------------------------|
B---------0-----------------------|--------------------------|
G--0--0-----2--0------------------|-0---0--------------------|
D-------0---------2---------------|--------4---4--2--2--0----|
A---------------------------------|--------------------------|
E---------------------------------|--------------------------|
Tap to rate this tab
 
# A B C D E F G H I J K L M N O P Q R S T U V W X Y Z