Song name
# A B C D E F G H I J K L M N O P Q R S T U V W X Y Z

Useless Id - Its Alright tab

Help us improve GuitareTab! Take a short survey!
Here are just some parts. I'm not pretty sure, but it sounds better than the other one ;)


e|------------------------------------------------------------|
B|------------------------------------------------------------|
G|------4------4---------4-----4-------4------4--------4------|
D|----4------4---4-----4-----4--4----4------4---4----4---4----|
A|--2------2---------1-----1----------------------------------|
E|---------------------------------4-------4-------0----------|

Some Chords:

e|--------------------------------|
B|--------------------------------|
G|--4------4-------------1--------|
D|--4------4------6------2--------|
A|--2------1------6------2--------|
E|----------------4------0--------|
Related for Its Alright tab