Guitaretab - guitar tabs
Song name
# A B C D E F G H I J K L M N O P Q R S T U V W X Y Z

V-roys - Hold On To Me tab

-------------------------------------------------------------------------------
			     Hold Onto Me - V-Roys
-------------------------------------------------------------------------------


Song by the V-Roys
All Around Town
Lyrics By Scott Miller

Tabbed by: Joestokes06
Tuning: Capo 2nd Fret

Intro Rhythm (2 times)
    G     Em     C 
e|---3--x---0--x--0--0---0-0------------|
B|---3--x---0--x--1--1---1-1------------|
G|---0--x---0--x--0--0---0-0------------|
D|---0--x---2--x--2--0h2-0-0------------|
A|---2--x---2--x--3---------------------|
E|-3----x-0----x------------------------|

Lead Guitar Intro
[ Tab from: http://www.guitaretab.com/v/v-roys/152036.html ]
e|--------------------------------------|
B|---3-1-0-1-0---1-0---0-1-0-3-0-1-0----|
G|-------------0-----0----------------0-|
D|--------------------------------------|
A|--------------------------------------|
E|--------------------------------------|


G Em C D      G   Em  C  D
You... hold onto me
                G    Em    C
Like you're the only one
          D          G       Em     C      D
Who could care about me

Em                 D         C         G       Em     C      D
Did you ever think how blind you could be?
Em                      D       C     D       
Did you ever think that I could be so mean?

G Em C D      G   Em  C  D
You... hold onto me
                G    Em    C
Like you're the only one
          D          G       Em     C      D
Who could care about me

(Same as Above)
Did you ever feel like there was something wrong?
Did you ever feel like I was already gone?

You hold onto me
Like you're the only one
Who could care about me

Did you ever think that I'd be with someone else?
Do you ever think that you could trust yourself? 

Related for Hold On To Me tab
×
Best way to learn
"Hold On To Me"