Song name
# A B C D E F G H I J K L M N O P Q R S T U V W X Y Z

Valens Richie - Come On Lets Go tab

in second bend play the string already bending

e --------8--------------8-10--10b--10-----10b-10--8----------------|
B ----10----10----10-10-------------------------------10------------|
G ------------------------------------------------------------------|
D ------------------------------------------------------------------|
A ------------------------------------------------------------------|
E ------------------------------------------------------------------|


e --------------------------------------5-8--8--5----5-5------------|
B ---------13----12----10-10-------5h7-------------7-----7----------|
G ---7s11-----11----11-------11-------------------------------------|
D ------------------------------------------------------------------|
A ------------------------------------------------------------------|
E ------------------------------------------------------------------|


e --8-8---7---5---------------------------------------------------------|
B --8-8---7---5---7--4s5------------------------------------------------|
G ----------------7--5s6----------5-----5--7-7b--5--7--5--7-------------|
D -----------------------7--5--7-----7----------------------7--5--7-----|
A ----------------------------------------------------------------------|
E ----------------------------------------------------------------------|


e --------------5--------5--------5--7-7-5-5--5-7-5-8-8-8-----------------|
B --------------5--------5----5h7-------------------------7-5-------------|
G --------------5h6-5h7---------------------------------------------------|
D --7--5--7-7~------------------------------------------------------------|
A ------------------------------------------------------------------------|
E ------------------------------------------------------------------------|


e --------8--10s12-12--12-12-12-10-9----------------------------------|
B --8s10-----------------------------10-------------------------------|
G --------------------------------------------------------------------|
D --------------------------------------------------------------------|
A --------------------------------------------------------------------|
E --------------------------------------------------------------------|
Tap to rate this tab
# A B C D E F G H I J K L M N O P Q R S T U V W X Y Z