Song name
# A B C D E F G H I J K L M N O P Q R S T U V W X Y Z

Valley Of Chrome - Pangako tab

Song Title:  Pangako
Artist/Band: Valley Of Chrome
Album/Year:  Valley Of Chrome (2012)

Tabbed By:   Pauz Prima (@MastersVision) - twitter

--------------------------------------------------------------------------------------

INTRO:

Guitar 1: (2x)

|--------------------------------------------|
|--------------------------------------------|
|--------------------------------------------|
|----------6-6/9-6~~----------6-6/9-11-6~~---|
|---7---7~-------------7---7~----------------|
|-9---9--------------9---9-------------------|

|-------------------------------------------|
|-------------------------------------------|
|-------------------------------------------|
|----------6-6/9-6~~------------------------|
|---7---7~-------------7---7~~-9-11-9-11~~--|
|-9---9--------------9---9------------------|

Guitar 2:

|----------------------------------------|
|----------------------------------------|
|----------------------------------------|
|-6~~~-xx-4~~~-xx-7~~~-xx-4~~-xx-6~~~-xx-|
|-4~~~-xx-2~~~-xx-7~~~-xx-4~~-xx-6~~~-xx-|
|------xx------xx-5~~~-xx-2~~-xx-4~~~-xx-|

|--------------------------------------|
|--------------------------------------|
|--------------------------------------|
|-6~~~-xx-4~~~-xx-7~~~-xx-6~~-xx-9~~~~-|
|-4~~~-xx-2~~~-xx-7~~~-xx-6~~-xx-9~~~~-|
|------xx------xx-5~~~-xx-4~~-xx-7~~~~-|


CHORUS:

Guitar 1: (2x)

|--------------------------------------------|
|--------------------------------------------|
|--------------------------------------------|
|----------6-6/9-6~~----------6-6/9-11-6~~---|
|---7---7~-------------7---7~----------------|
|-9---9--------------9---9-------------------|

|-------------------------------------------|
|-------------------------------------------|
|-------------------------------------------|
|----------6-6/9-6~~------------------------|
|---7---7~-------------7---7~~-9-11-9-11~~--|
|-9---9--------------9---9------------------|

Guitar 2: C#m-B-A-F#m-G#m
          C#m-B-A-G#m-B


/ - slide up
~ - let ring
x - dead note


sensya, eto lang muna ngayon..next time na lang ung riffs sa verse tsaka yung solo.. \,,/

-------------------------------------------------------------------------------------

Salungguhit
Senthyx Band
Tap to rate this tab
 
# A B C D E F G H I J K L M N O P Q R S T U V W X Y Z