Song name
# A B C D E F G H I J K L M N O P Q R S T U V W X Y Z

Van Der Graaf Generator - Killer tab

-------------------------------------------------------------------------------
			     Killer - Van Der Graaf Generator 
-------------------------------------------------------------------------------
Tabbed by: NineInchNails_0
Tuning: e,B,G,D,A,E

Intro:
e|---------------------------------------------------------------------------|
B|---------------------------------------------------------------------------|
G|---------------------------------------------------------------------------|
D|-0--------0--3-2-3-2-3------0--------0--3-2-3-2-3--------------------------|
A|-----------------------3--------------------------3------------------------|
E|---------------------------------------------------------------------------|
Play 2 times.

Verse:
e|---------------------------------------------------------------------------|
B|---------------------------------------------------------------------------|
G|---------------------------------------------------------------------------|
D|-0-0-0-0-0-3-3-3-3-3-5-5-5-5-5-0-0-0-0-0-3-5----3-2-3-2-3------------------|
A|----------------------------------------------------------3----------------|
E|---------------------------------------------------------------------------|
Play 2 times.
   
e|---------------------------------------------------------------------------|
B|---------------------------------------------------------------------------|
G|---------------------------------------------------------------------------|
D|-0-0-0-0-0-0-3-2-3-2-3---0-0-0-0-0-0-3-2-3-2-3-----------------------------|
A|-----------------------3-----------------------3---------------------------|
E|---------------------------------------------------------------------------|
Play 2 times.

e|---------------------------------------------------------------------------|
B|---------------------------------------------------------------------------|
G|---------------------------------------------------------------------------|
D|-0----3-2-3-2-3---0--------0--3-2-3-2-3------------------------------------|
A|----------------3-----------------------3----------------------------------|
E|---------------------------------------------------------------------------|

e|---------------------------------------------------------------------------|
B|---------------------------------------------------------------------------|
G|---------------------------------------------------------------------------|
D|-0--------0--3-2-3-2-3------0--------0--3-2-3-2-3--------------------------|
A|-----------------------3--------------------------3------------------------|
E|---------------------------------------------------------------------------|

Verse:
e|---------------------------------------------------------------------------|
B|---------------------------------------------------------------------------|
G|---------------------------------------------------------------------------|
D|-0-0-0-0-0-3-3-3-3-3-5-5-5-5-5-0-0-0-0-0-3-5----3-2-3-2-3------------------|
A|----------------------------------------------------------3----------------|
E|---------------------------------------------------------------------------|
Play 2 times.

e|---------------------------------------------------------------------------|
B|---------------------------------------------------------------------------|
G|---------------------------------------------------------------------------|
D|-0-0-0-0-0-0-3-2-3-2-3---0-0-0-0-0-0-3-2-3-2-3-----------------------------|
A|-----------------------3-----------------------3---------------------------|
E|---------------------------------------------------------------------------|
Play 2 times.

e|---------------------------------------------------------------------------|
B|---------------------------------------------------------------------------|
G|---------------------------------------------------------------------------|
D|-5-6-3-5--5-6-3-5--6-5-6-5-3-5---3--3-5---3--------------------------------|
A|-------------------------------6--------6----------------------------------|
E|---------------------------------------------------------------------------|
Play 4 times.

e|---------------------------------------------------------------------------|
B|---------------------------------------------------------------------------|
G|---------------------------------------------------------------------------|
D|---------------------------------------------------------------------------|
A|-3-5---3--3-5---3-5---3----------------------------------------------------|
E|-----6--------6-----6------------------------------------------------------|

e|---------------------------------------------------------------------------|
B|---------------------------------------------------------------------------|
G|---------------------------------------------------------------------------|
D|-5--0-0--3-2--5--0-0--3-2--5--0-0--3-2--5--0-0--3-2------------------------|
A|---------------------------------------------------------------------------|
E|---------------------------------------------------------------------------|

Then it's some kind of piano solo. During the piano solo, this will kick in again:

e|---------------------------------------------------------------------------|
B|---------------------------------------------------------------------------|
G|---------------------------------------------------------------------------|
D|-5--0-0--3-2--5--0-0--3-2--5--0-0--3-2--5--0-0--3-2-2-2-2-2--5--0-0--3-2---|
A|---------------------------------------------------------------------------|
E|---------------------------------------------------------------------------|


e|---------------------------------------------------------------------------|
B|---------------------------------------------------------------------------|
G|---------------------------------------------------------------------------|
D|-5--0-0--3-2-2-2-2-2-2-2-2-2-2-2-------------------------------------------|
A|---------------------------------------------------------------------------|
E|---------------------------------------------------------------------------|

e|---------------------------------------------------------------------------|
B|---------------------------------------------------------------------------|
G|---------------------------------------------------------------------------|
D|-5-6-3-5--5-6-3-5--6-5-6-5-3-5---3--3-5---3--------------------------------|
A|-------------------------------6--------6----------------------------------|
E|---------------------------------------------------------------------------|
Play 4 times.

e|---------------------------------------------------------------------------|
B|---------------------------------------------------------------------------|
G|---------------------------------------------------------------------------|
D|---------------------------------------------------------------------------|
A|-3-5---3--3-5---3-5---3----------------------------------------------------|
E|-----6--------6-----6------------------------------------------------------|

e|---------------------------------------------------------------------------|
B|---------------------------------------------------------------------------|
G|---------------------------------------------------------------------------|
D|-5-6-3-5--5-6-3-5--6-5-6-5-3-5---3--3-5---3--------------------------------|
A|-------------------------------6--------6----------------------------------|
E|---------------------------------------------------------------------------|
Play 4 times.

e|---------------------------------------------------------------------------|
B|---------------------------------------------------------------------------|
G|---------------------------------------------------------------------------|
D|---------------------------------------------------------------------------|
A|-3-5---3--3-5---3-5---3----------------------------------------------------|
E|-----6--------6-----6------------------------------------------------------|

e|---------------------------------------------------------------------------|
B|---------------------------------------------------------------------------|
G|---------------------------------------------------------------------------|
D|-5--0-0--3-2--5--0-0--3-2--5--0-0--3-2--5--0-0--3-2-2-2-2-2----------------|
A|---------------------------------------------------------------------------|
E|---------------------------------------------------------------------------|

e|---------------------------------------------------------------------------|
B|---------------------------------------------------------------------------|
G|---------------------------------------------------------------------------|
D|-5--0-0--3-2--5--0-0--3-2--5--0-0--3-2--5--0-0--3-2------------------------|
A|---------------------------------------------------------------------------|
E|---------------------------------------------------------------------------|

This is the 8 minute and 17 seconds version.

===============================================================================
Tap to rate this tab
 
# A B C D E F G H I J K L M N O P Q R S T U V W X Y Z