Song name
# A B C D E F G H I J K L M N O P Q R S T U V W X Y Z

Van Halen - Mine All Mine tab

Mine All Mine
Van Halen 
from OU812

synth arrangement for guitar
guitar 1
|------------------------------------------------------------------------|
|------------------------------------------------------------------------|
|------------------------------------------------------------------------|
|-----------------------------------------------------------3--3----5----|
|-----------5--5-5---5---5---5-5-x-5-5------5-5---5--5-5-----------------|
|------------------------------------------------------------------------|

guitar 2 (x/ = pick scrape)
|---------------------------------------------10-10----------------------|
|---------------------------------------------10-10----------------------|
|---------------------------------------------10-10---------10-------12--|
|-x--x----------------------------------------------------10-------12----|
|-x--x-------------------------------------------------------------------|
|------------------------------------------------------------------------|


guitar 1
|------------------------------------------------------------------------|
|------------------------------------------------------------------------|
|------------------------------------------------------------------------|
|-----------------------------------------------------------3--3----5----|
|-----------5--5-5---5---5---5-5-x-5-5------5-5---5--5-5-----------------|
|------------------------------------------------------------------------|


guitar 2
|----------0----------------------------------10-10----------------------|
|----------6----------------------------------10-10----------------------|
|----------7----------------------------------10-10---------10-------12--|
|----------7------------------------------------------------10-------12--|
|------------------------------------------------------------------------|
|------------------------------------------------------------------------|


guitar 1
|------------------------------------------------------------------------|
|------------------------------------------------------------------------|
|------------------------------------------------------------------------|
|-----------------------------------------------------------3--3----5----|
|-----------5--5-5---5---5---5-5-x-5-5------5-5---5--5-5-----------------|
|------------------------------------------------------------------------|


guitar 2
|----------0----------------------------------10-10----------------------|
|----------6----------------5-5-5-5-----------10-10----------------------|
|----------7----------------7-7-7-7-----------10-10---------10-------12--|
|----------7----------------7-7-7-7-------------------------10-------12--|
|---------------------------5---0-5--------------------------------------|
|------------------------------------------------------------------------|

guitar 1
|------------------------------------------------------------------------|
|------------------------------------------------------------------------|
|------------------------------------------------------------------------|
|------------------------------------------------------------------------|
|-----------5--5-5---5---5---5-5-x-5-5------5-5---5--5-5--3--3--3-3-3----|
|------------------------------------------------------------------------|


guitar 2
|----------0--------------------------------10-10-10-10------------------|
|----------6----------------5-5-5-5---------10-10-10-10------------------|
|----------7----------------7-7-7-7---------10-10-10-10---10-10-10-------|
|----------7----------------7-7-7-7-----------------------10-10-10-------|
|---------------------------5---0-5--------------------------------------|
|------------------------------------------------------------------------|

riff 2
|------------------------------------------------------------------------|
|------6----6----5----5---3---x---x--x--3---3---5---5---6----------------|
|--7---7----7----5----5---3---x---x--x--3---3---5---5---7----------------|
|--7---7----7----5----5---3---x---x--x--3---3---5---5---7----------------|
|--5----------------------5---3---5------------------------5--3----------|
|------------------------------------------------------------------------|


|-------------------------------------------------------------------------|
|-----6---6---3---1---5-------5----------------------6---6---5---5---3--x-|
|-----7---7---2---2---5-------5-----10-10-10-10------7---7---5---5---3--x-|
|-----7---7---3---3---5-------5-----10-10-10-10------7---7---5---5---3--x-|
|--5------------------7-------7------8--8--8--8---5------------------5--3-|
|-------------------------------------------------------------------------|


|-------------------------------------------------------------------------------------|
|-x--x--3---3----5---5---6--------6---6---10---12----12---13--13--12-12--10--10--10---|
|-x--x--3---3----5---5---7--------7---7---10---12----12---12--12--12-12--12--12--12---|
|-x--x--3---3----5---5---7--------7---7---10---12----12---12--12--12-12--12--12--12---|
|-5----------------------5--3--5---------------------10--------------10---------------|
|-------------------------------------------------------------------------------------|
Tap to rate this tab
# A B C D E F G H I J K L M N O P Q R S T U V W X Y Z