Song name
# A B C D E F G H I J K L M N O P Q R S T U V W X Y Z

Van Halen - Respect The Wind tab

Help us improve GuitareTab! Take a short survey!
RESPECT THE WIND
As recorded by Van Halen
(From the 1996 Album TWISTER ( SOUNDTRACK ))

Transcribed by Leandro Perazza (leahorsie@yahoo.com.ar)
	

Music by Edward & Alex Van Halen.

Gtr I (E A D G B E) - 'Gtr 1 (dist)'
Gtr II (E A D G B E) - 'Gtr 2'

 Intro
  Slower Q=88
 4/4
  Gtr I
  W          Q  E E a Q  E E
|-1--------|-----------------|
|----------|------3-3s4--3---|
|----------|---------------5-|
|----------|-----------------|
|----------|-----------------|
|----------|-----------------|


    Gm
                                          \0.5/
                                       |----3----|
  a H    +E  a E +E  S S    a  H.      E  E     +E
|------------------------|----------------------------|
|------------------------|----------------------------|
|-5s7----(7)-7s8-(8)-7p5-|-(5)s7----------------------|
|------------------------|-------------x\-0-----(0)/--|
|------------------------|-------------x\-0-----(0)/--|
|------------------------|----------------------------|


  Cm
   /0.5________________|       /0.5___
   E     +E  +Q   +E  +E  +E  +E
|------------------------------------|
|------------------------------------|
|------------------------------------|
|--0-----(0)-(0)--(0)-(0)-(0)-(0)----|
|-(0)----(0)-(0)--(0)-(0)-(0)-(0)----|
|------------------------------------|


                            Gm
            |    \1__________|              \2.5
  +Q   +E  +Q   +E   +Q     +E  +E  +H     +Q
|-------------------------|-----------------------|
|-------------------------|-----------------------|
|-------------------------|-----------------------|
|-(0)--(0)-(0)--(0)--(0)--|-(0)-(0)-(0)----(0)----|
|-(0)--(0)-(0)--(0)--(0)--|-----------------------|
|-------------------------|-----------------------|


                                                Section 1
                                                 Eb
                                                                     ~~~~~~~~~~~~             ~~
                 |---3----|                                                        |---3---|
  Q  E  E  S  S  S     S  S     S  S      +E      +E   +S   E     S  E       +E   +S    S  S  Q
|----------3s15-------15-------15-18b20==(18)-||-(18)r(18)-18b22-18-18pb20==(18)-(18)r-15h18p15--|
|----x----------18b20----18b20----------------||-------------------------------------------------|
|----x----------------------------------------||-------------------------------------------------|
|---------------------------------------------||-------------------------------------------------|
|---------------------------------------------||-------------------------------------------------|
|------(x)------------------------------------||-------------------------------------------------|


                          ~~
              |---3----|
   S     +S   S  S     S  Q   +E  S  S  S  S  S  S
|----------------------------------------------------|
|-18b20r(18)p15--------------------------------------|
|---------------17b19-17-15--(15)sxs15-15-15-15-15---|
|----------------------------------------------------|
|----------------------------------------------------|
|----------------------------------------------------|


  Bb
                     ~~~~~~~
   S  S  S  S  E  a  E  +E    Q         E
|----------------------------------------------|
|----------------------------------------------|
|-17-17-17-17-17-17s19-(19)-[19]b20===[19]b22==|
|----------------------------------------------|
|----------------------------------------------|
|----------------------------------------------|


                                 G7
    ~~~~~                          ~~~~         ~~
   +H      E   S   S  +E    E      E   E  E  E  Q   +E   E
|------------------------------|---------------------------|
|----------x\------------------|---------------------------|
|-(19)r----x\-(5)s17-(17)-[17]-|-[17]-16-------------------|
|------------------------------|---------17-15-----------7-|
|------------------------------|---------------17--(17)\---|
|------------------------------|---------------------------|


  Gm7                        Cm
                                                            >
   E E  E E  E   E a E a E   +E  E E  E +E  E     +E  +E    H    Q  E  E
|--------------------------|------------------------------|-----------^5-|
|--------------------------|----------------8b10==(8)r(8)-|-8---------^3-|
|---------------/7-7h8-7h8-|-(8)p7-5-/7-(7)---------------|-----------^3-|
|-/8s7-\3s5----------------|------------------------------|--------------|
|-----------(5)------------|------------------------------|--------------|
|--------------------------|------------------------------|--------------|


  Gm
       PM----|             ~~~~~~
    |-3--| |--3--|
    E  E E E E S S   +S  S E +Q
|-h(6)-6-5-3----------------------|
|------------6---6b8r(6)p3h6-(6)--|
|---------------------------------|
|---------------------------------|
|---------------------------------|
|---------------------------------|


                                   /1___|
                    PM
          |--3---|        |3-| |-3-|
  E E    +S  +S  S  S  S +E  S S S S   +S   S T T T T
|--------------------------------------------------------|
|--------------------------------------------------------|
|---5b7==(5)r(5)p3----/5-(5)s3h5p3-3---(3)-h5-3h5p3-3b5==|
|------------------h5------------------------------------|
|--------------------------------------------------------|
|--------------------------------------------------------|


  Cm
                                    <
                       \1/
       |-3--|    |--3--|
  +S  +S  S S S  S  S +S  S S +Q   +Q
|---------------------------------------|
|---------------------------------------|
|-(3)r(3)p0h3p0-h3-h3-(3)p0-0-(0)--(0)--|
|---------------------------------------|
|---------------------------------------|
|---------------------------------------|


                                        Gm
        \2.5  \3.5   \1____/
  +Q   +E     Q      a    +E    +Q       +W
|-------------------------------------|----------|
|-------------------------------------|----------|
|-(0)--(0)---[0]----<5>--(<5>)-(<5>)--|-(<5>)----|
|-------------x-----------------------|----------|
|-------------------------------------|----------|
|-------------------------------------|----------|


                                Section 2
                                 Eb
    \3.5______|                              \0.5/    \0.5/    \0.5/    \0.5/
   +H         E    E    +Q         +Q.      +E       +E       +E       +E       +E
|-----------------------------||-----------------------------------------------------|
|-----------------------------||-----------------------------------------------------|
|-(<5>)----------<12>-(<12>)--||-(<12>)---(<12>)---(<12>)---(<12>)---(<12>)---(<12>)-|
|-----------------------------||-----------------------------------------------------|
|------------(x)--------------||-----------------------------------------------------|
|-----------------------------||-----------------------------------------------------|


    +Q       E      E    E   E   E   E
|---------------------------------------|
|---------------------------------------|
|-(<12>)--(<12>)-(<12>)-----<5>---------|
|-----------------------<5>---------<5>-|
|----------\(x)/---(x)/---------<5>-----|
|---------------------------------------|


  Bb
          \0.5/   \0.5/   \0.5/   \0.5/ \0.5/      \0.5/
                                                   ~~~~~~~
   +E    +E      +E      +E      +E     E     +E   E
|--------------------------------------------------------|
|--------------------------------------------------------|
|---------------------------------------8-----(8)-10-----|
|-(<5>)-(<5>)---(<5>)---(<5>)---(<5>)--------------------|
|--------------------------------------------------------|
|--------------------------------------------------------|


                                G7                          Gm7
                                                              <
 ~~~~~~~~~~~~                    ~~          ~~
   +E   +E  E  E   E  E  E  E    E  E  E  E  Q   +E   E   E E H    +E  E
|-------------(3)s20-19-20-20-|-20-19-------------------|-----------------|
|-----------------------------|-------20-18-------------|-----------------|
|-(10)-(10)s3-----------------|-------------19--(19)\---|--------------7--|
|-----------------------------|-------------------------|---5-------------|
|-----------------------------|-------------------------|-----5----(5)----|
|-----------------------------|-------------------------|-----------------|


  Cm
   |-3-|  |-----3------|
   Q Q Q  Q Q     +E  +E    +H     Q.   E
|-------------------------|-------------------|
|-----------8b10==(8)r(8)-|-(8)---------8b10==|
|-/8s7-5-/7---------------|-------------------|
|-------------------------|-------------------|
|-------------------------|-------------------|
|-------------------------|-------------------|


  Gm
  +Q   +E  +E  H      Q.   E     +H
|-------------------|-------------------|
|-(8)--(8)r(8)------|------8b10==(8)----|
|--------------7----|-------------------|
|-------------------|-------------------|
|-------------------|-------------------|
|-------------------|-------------------|


  Cm
  +Q   +Q   +H       E E     +Q   +Q    a    E     E
|------------------|-------------------------------------|
|-(8)r=(8)--(8)----|---8b10==(8)--(8)--(8)r-(8)b11-8b10==|
|------------------|-------------------------------------|
|------------------|-------------------------------------|
|------------------|-------------------------------------|
|------------------|-------------------------------------|


  Gm
                               \2            \3
                                          PM
                                                       |--3--|
  +Q   +Q   Q.   +S   S     E +E  +E  +S  S  Q   +S  S S  S  S
|-------------------------|------------------------------------||
|-(8)r=(8)----------------|-3-(3)-(3)-(3)----------------(8)---||
|-----------7----(7)------|-0-(0)-(0)-(0)-0-[0]--(0)-x-8--8--8-||
|-------------------------|----------------------------8--8--8-||
|--------------------(x)\-|------------------------------------||
|--------------------(x)\-|------------------------------------||


 Section 3
  Eb
        \0.5/  \0.5/
   E  E E      E      E  E a  E  S  S
|-11s10--------------13s11------------|
|-------------------------------------|
|--8s=7-8S====10-----10s=8-8s10-12-12-|
|-------------------------------------|
|-------------------------------------|
|-------------------------------------|


                                         Bb
   S  S  a  E  +E   E  +E   S  S  E  E    E  E  E  E  E  E       +E    E
|--------------------------------------|----------------22pb23==(22)r-22b25==|
|--------------------------------------|-------------------------------------|
|-12-12-12s14-(14)-15-(15)-17-17-17s15-|-15-17-17-19-19----------------------|
|--------------------------------------|-------------------------------------|
|--------------------------------------|-------------------------------------|
|--------------------------------------|-------------------------------------|


                            G7
    ~~~~~               ~~~~~~~          ~~
   +H       S  E. S  S  E    E  E  E  E  Q   +E   E
|-(22)r-----x\-8s20-20-20-|-20-19--------------------|
|----------(0)------------|-------20-18--------------|
|-------------------------|-------------19--(19)s=x--|
|-------------------------|----------------------(0)-|
|-------------------------|--------------------------|
|-------------------------|--------------------------|


  Gm7
            ~~~~~~~
   E  E  E  E  +E   +S  S  Q
|------------------------------|
|-11---------------------------|
|----10----12-(12)-(12)sx-<5>--|
|-------12---------------------|
|------------------------------|
|------------------------------|


  Cm
                                                 <
          \0.5/   \0.5/   \0.5/                           \1.5________/0.5___
    |------3------|
   +Q    +Q      +Q      +E      +Q.       +E    E  +Q   +Q      +E  +E
|---------------------------------------|-----------------------------------|
|---------------------------------------|-----------------------------------|
|-(<5>)-(<5>)---(<5>)---(<5>)---(<5>)---|-(<5>)-[5]-(5)--(5)-----(5)-(5)----|
|---------------------------------------|-----------------------------------|
|---------------------------------------|-----------------------------------|
|---------------------------------------|-----------------------------------|


  Gm
              <
          |       \0.5_______\1.5______/1_____
  +H     +E   E  +Q         +H        +H
|-------------------------|------------------|
|-------------------------|------------------|
|-(5)----(5)-[5]-(5)------|-(5)-------(5)----|
|-------------------------|------------------|
|-------------------------|------------------|
|-------------------------|------------------|


  Cm                                                          Gm
                \1.5__________________________________________/     |
                           |----3-----|
  +H     +E  E +E      E   E  S  S  S S S  S E  Q    E    E   H    +H
|------------------------|----------------------------------|-------------|
|------------------------|------hx--------hx----------------|-------------|
|-(5)----(5)-------------|---hx----hx-----hx-------------hx-|-0----(0)----|
|------------------------|---------------------hx--------hx-|-0----(0)----|
|------------------------|-------------------------\(x)\-hx-|-------------|
|------------0-(0)----hx-|-------------------------------hx-|-------------|


                                    Section 4
                                     Eb
        \2 /2.5___\3.5_______/
  +Q   +E  a     +E     +E   Q.       +Q    +H.
|---------------------------11----||-(11)--(11)------|
|---------------------------11----||-(11)--(11)------|
|-(0)--(0)-0-----(0)----(0)--8----||--(8)---(8)------|
|-(0)--(0)-0-----(0)----(0)-------||-----------------|
|----------x----------------------||-----------------|
|---------------------------------||-----------------|


         \0.5/   /1________| \2.5_____/0.5_____
   +E    a      +E    +Q   a Q        Q
|-(11)-h13-----(13)--(13)---------------------|
|-(11)-h13-----(13)--(13)-----------<12>------|
|--(8)-h10-----(10)--(10)--x-0----------------|
|---------------------------------------------|
|---------------------------------------------|
|---------------------------------------------|


  Bb
     |       /1.5__________________________
    +Q       E       +E     +Q      +Q
|-----------------------------------------|
|-(<12>)--(<12>)---(<12>)-(<12>)--(<12>)--|
|-----------------------------------------|
|-----------------------------------------|
|-----------------------------------------|
|-----------------------------------------|


                                     G7
                                                       >
     |                          |
                         ~~~~        ~             ~~~~~~~
    +E   S  S      +Q   +Q.     E    E  E   E   E  Q  +Q
|----------------------------------|-----------------------|
|-(<12>)---------------------------|-----------------------|
|--------x-[9]b10==(9)--(9)r---(0)-|-5-[4]-----------------|
|--------x---------------------(0)-|-------[3]-[5]---------|
|----------------------------------|---------------5--(5)--|
|----------------------------------|-----------------------|


  Gm7                 Cm
   E  E E E +Q.   E    E E E  E +E  E     +S  +S  +E
|-------------------|---------------------------------|
|-------------------|---------------8b10==(8)r(8)-(8)-|
|-[3]-------------7-|-/8-7-5-/7-(7)-------------------|
|-----3---5-(5)-----|---------------------------------|
|-------5-----------|---------------------------------|
|-------------------|---------------------------------|


                    Gm
  +H.      Q        +Q   +E  E +H
|-----------------|-------------------|
|-(8)------8b10===|=(8)r=(8)----------|
|-----------------|----------7-(7)----|
|-----------------|-------------------|
|-----------------|-------------------|
|-----------------|-------------------|


                      Cm
                                                   ~~~~
  +Q   Q  E Q.        +Q    E     +E  +E   E  +E  +E
|-------------------|---------------------------------|
|-----------8b10====|=(8)r--8b11==(8)-(8)r(8)---------|
|-(7)---------------|----------------------7--(7)-(7)-|
|-------------------|---------------------------------|
|-------------------|---------------------------------|
|-------------------|---------------------------------|


                           Gm
 ~~~~~
  +Q   E. S S  E. E  S S   E   E Q.   E E S  S
|-------------^3----^3h5-|-5b6-3------------(3)--|
|---------x---^4----^4---|-------------------3---|
|-(7)-------x-^5----^5---|-------3--------0--0---|
|------------------------|----------------0------|
|------------------------|-----------------------|
|------------------------|-----------------------|


                                Section 5
                                 Eb
  Gtr I
   \2________|     \1/
                                          ~~      ~~~
  +Q    +E   S  S  E   E  E E    Q  E  E  E S S E E
|-(3)---(3)-------------------||--------------------|
|-(3)---(3)-------------------||--------------------|
|-(0)---(0)-(0)-0-(0)---------||--------------------|
|------------------0----------||------------7-7-7s8-|
|----------------------5-/6s5-||-6--8s10-10---------|
|-----------------------------||--------------------|
|
|                                Gtr II
|  W                             W
|-----------------------------||--------------------|
|-----------------------------||--------------------|
|-----------------------------||--------------------|
|-----------------------------||--------------------|
|-----------------------------||--------------------|
|-----------------------------||--------------------|


 ~~~~~
  +E  +S   S +Q     Q     E  S  S
|---------------------------------|
|---------------------------11-11-|
|---------------------------------|
|-(8)-(8)s=7-(7)----8-------------|
|---------------------------------|
|---------------------------------|
|
|  E   S   S  E  E  E  E  E  E
|-----11--11-11s10-11s13-13s11----|
|-----11--11-11s10-11s13-13s11----|
|---------------------------------|
|---------------------------------|
|---------------------------------|
|---------------------------------|


  Bb
   E   a   E  E   a   E  E  E      +E    E
|----------------------------------------------|
|-11-(11)s13-13-(13)s15-15-15b16==(15)r-16b18==|
|----------------------------------------------|
|----------------------------------------------|
|----------------------------------------------|
|----------------------------------------------|


                                        G7
         ~~~~~~~~~~~~~~~~~~ TP          ~           ~~
   +E    E      +Q    +S   +S   Q   E   E E  E   E  Q.   +E
|-------------------------------------|------------------------|
|-(16)r-16b18==(16)--(16)r-(x)s(0)----|------------------------|
|-----------------------------------5-|-5-4--------------------|
|-------------------------------------|-----[5]-[3]------------|
|-------------------------------------|-------------5----(5)\--|
|-------------------------------------|------------------------|


  Gm7                  Cm
      ~~~~~
                        |-3-|
  E   E Q.   +Q    E    Q Q Q a E Q.
|-6b8-6--------------|--------------------|
|-------8----(8)\----|------------8b10====|
|------------------7-|-/8-7-5-5s7---------|
|--------------------|--------------------|
|--------------------|--------------------|
|--------------------|--------------------|


                         Gm
  +Q.    a  +Q.     Q    E Q      +E  +E  E +Q
|----------------------|-------------------------|
|-(8)---(8)-(8)b9------|---8b10===(8)r(8)--------|
|----------------------|------------------7-(7)--|
|----------------------|-------------------------|
|----------------------|-------------------------|
|----------------------|-------------------------|


                       Cm
  +Q   Q  Q  E E       +Q.    a  +E  H
|--------------------|--------------------|
|--------------8b10==|=(8)---(8)r(8)------|
|-(7)----------------|---------------7----|
|--------------------|--------------------|
|--------------------|--------------------|
|--------------------|--------------------|


                   Gm
  Q  H.            +Q    a  +E  E +H
|----------------|-----------------------|
|----8pb10=======|=(8)--(8)r(8)----------|
|----------------|--------------7-(7)----|
|----------------|-----------------------|
|----------------|-----------------------|
|----------------|-----------------------|


                     Section 6
                      Eb
           |--3--|
  +Q   E E E Q E Q    +E   a   E E  E S S E +Q     Q  S S S S E. S S S E
|------------------||----------------------------|-----------------------|
|------------------||----------------------------|-----------------------|
|-(7)--x-x-7s8s7s8-||-(8)-(8)s10-7-/8-7-5--------|------2h3-3s5--3p2h3-3-|
|------------------||---------------------8-(8)--|-----------------------|
|------------------||----------------------------|-----------------------|
|------------------||----------------------------|-----------------------|


  Bb
  +Q   +Q      E   E   E  E
|---------------------10-13pb15==|
|--------------------------------|
|-(3)--(3)/--<12>----------------|
|-----------------<7>------------|
|--------------------------------|
|--------------------------------|


                                     G7
          ~~~~
   +Q    +Q.    +E       E  E         +Q    +E   +E      +Q.     E
|-(13)r=(13)---(13)b13.5---13pb15==|=(13)r=(13)-(13)b15-(13)--------|
|----------------------------------|--------------------------------|
|----------------------------------|---------------------------/19/-|
|----------------------------------|--------------------------------|
|----------------------------------|--------------------------------|
|----------------------------------|--------------------------------|


  Gm7                      Cm
  \2.5
                            |-3-|
  Q     +E    E  +Q.   E    Q Q Q a E Q.
|------------------------|--------------------|
|------------------------|------------8b10====|
|-0-----(0)-h12-(12)---7-|-/8-7-5-5s7---------|
|------------------------|--------------------|
|------------------------|--------------------|
|------------------------|--------------------|


                         Gm
   Q.   +Q   +Q.         +Q   +E  +E      +Q.   +E
|----------------------|------------------------------|
|-[8]r==(8)--(8)b10====|=(8)r=(8)-(8)b10==(8)---(8)r==|
|----------------------|------------------------------|
|----------------------|------------------------------|
|----------------------|------------------------------|
|----------------------|------------------------------|


                                Cm
                                     ~~~
  +E  +E      +Q.   +E  +E  E    E  +Q    a   Q.    a   Q
|-----------------------------|-----------------------------|
|-(8)-(8)b10==(8)---(8)r(8)---|-----------------------------|
|---------------------------7-|-[7]-(7)--(7)s[5]---(5)s[3]--|
|-----------------------------|-----------------------------|
|-----------------------------|-----------------------------|
|-----------------------------|-----------------------------|


                             |-----3------|  |---3----|
  +E   a  E +E  E   S  S     S      S     S  S     S  S      +S   +S
|------------------15--------------------15-------15-18b20==(18)-(18)r==|
|---------------------18b20-18pb20-18b20----18b20-----------------------|
|-(3)-(3)s2-(2)-2/------------------------------------------------------|
|-----------------------------------------------------------------------|
|-----------------------------------------------------------------------|
|-----------------------------------------------------------------------|


  Gm
                                              ~~~~~
                 |------3------|   |3-|                    |---3----|  |----3-----|
   +E   S     S  S      S     +S   S  E      +E     S   S  S     S  S  S     +S   S
|-(18)-18b22-18-18pb20-18b20r(18)p15-------------------18-17b18-17-15-17b18r(17)p15-|
|------------------------------------18b20==(18)r-(15)------------------------------|
|-----------------------------------------------------------------------------------|
|-----------------------------------------------------------------------------------|
|-----------------------------------------------------------------------------------|
|-----------------------------------------------------------------------------------|


                                                                 PM--|
   |---3----|
   S     S  S  T  T  T  T      +T   T  T  T  T  T  T     +T   E  S S S E.
|-17b18-15-17-18-15-17-17pb18r(17)h18p17p15---------------------------------||
|-------------------------------------------18p15-18b20r(18)p15\------------||
|----------------------------------------------------------------3-5-3-5b7==||
|---------------------------------------------------------------------------||
|---------------------------------------------------------------------------||
|---------------------------------------------------------------------------||


 Section 7
  Eb
                                      \0.5__|
   ~~~~~~~~                       ~
   |--------3--------|                         |--3--|  |--3--|
  +E   a  +S  S S    S   T  S  T  Q   a     E  S  S  S  S  S  S
|---------------------------------------------15-15-15-18-18-18-|
|---------------------------------------------------------------|
|-(5)-(5)r(5)p3-5b6-[5]-[3]-0-[0]-0-----------------------------|
|------------------------------------(0)----0-------------------|
|---------------------------------------------------------------|
|---------------------------------------------------------------|


                                                         PM
   |--3--|                            |--3---|                    |--3--|
   S  S  S     E     a  E.     +S     S   S  S  T  T  T  T  E     S  S  S
|-18-18-18b20-20b22-22-22b25==(22)rs(18)-15-18p17h18p17-15----------------|
|----------------------------------------------------------18b20r15----15-|
|-------------------------------------------------------------------17----|
|-------------------------------------------------------------------------|
|-------------------------------------------------------------------------|
|-------------------------------------------------------------------------|


  Bb
                                   ~~~~~~~~~             ~~~
   |----3-----|
   S     +S   S  T  T  T  T   S   +S   +S   S S S S S E +E
|-----------------------------------------------------------|
|------------------15-15------------------------3-----------|
|-17b19r(17)p15-17----15-15-[17]-(17)-(17)\-3-5---5-3-3-(3)-|
|------------------------15---------------------------------|
|-----------------------------------------------------------|
|-----------------------------------------------------------|


  \2.5____/1.5___\1___|
                                ~~~~~    ~~
  Q       a     +S   +S   a  E  E  E  E  E
|------------------------15s20-20-20-20-20--|
|-------------------------------------------|
|-0------(0)----(0)--(0)--------------------|
|-------------------------------------------|
|-------------------------------------------|
|-------------------------------------------|


  G7                         Gm7
               ~~                            ~~~~
   E  E  E  E  Q   +E   E     E  E  E   E   +Q    +E   E
|-20-19--------------------|--------------------------------|
|-------20-18--------------|-11-----------------------------|
|-------------19--(19)s(0)-|----10----[12]-(12)--(12)\-5pb7-|
|----------------------(0)-|-------12-----------------------|
|--------------------------|--------------------------------|
|--------------------------|--------------------------------|


  Cm
                     <
       |-3-|
  E    S S S    +E   E  +E  +E  +Q
|------------------------------------|
|------------------------------------|
|-5pb7-5p3-5b7==(5)-[5]-(5)-(5)r(5)--|
|------------------------------------|
|------------------------------------|
|------------------------------------|


                             Section 8
                              Cm
                             3/4
  +Q.      +Q.   +E    +E     +Q       E  E   E  E
|--------------------------||----------------------|
|--------------------------||--------/13h15-/16s13-|
|-(5)b7====(5)r==(5)b7r(5)-||-(5)b7----------------|
|--------------------------||----------------------|
|--------------------------||----------------------|
|--------------------------||----------------------|


  Bb                          Gm
    ~~~~                       ~~~
    E.   +S    +E   E  E  E    Q.    a  E     +E    +E
|---------------------10----|-------10s17b18-(17)-([17])-|
|-\11--([11])-(11)-13----11-|-\8-------------------------|
|---------------------------|----------------------------|
|---------------------------|----------------------------|
|---------------------------|----------------------------|
|---------------------------|----------------------------|


  F               Cm                         Bb
                     ~~~~~~                   ~~~
   +H      E  E     +E.   +S    E  E  E  E    Q.    E  E  E
|-(17)r===17p15-|-([15])-(15)\-------------|-------------15b17-|
|---------------|--------------13h15-16-13-|-11----13-15-------|
|---------------|--------------------------|-------------------|
|---------------|--------------------------|-------------------|
|---------------|--------------------------|-------------------|
|---------------|--------------------------|-------------------|


  Gm            F
     ~~~~~~
    +H.          +H          +E    +E
|-([15])------|-(15)b17=====(15)r-(15)pb18r=|
|-------------|-----------------------------|
|-------------|-----------------------------|
|-------------|-----------------------------|
|-------------|-----------------------------|
|-------------|-----------------------------|


  Cm                  Bb              Gm
    ~~~~               ~~
   +Q    E  E  E  E    Q   E  E  Q     +H      +E   +E
|-(15)--------------|-----------15--|-(15)----(15)-(15)b17==|
|-------13-15-16-13-|-11--13-15-----|-----------------------|
|-------------------|---------------|-----------------------|
|-------------------|---------------|-----------------------|
|-------------------|---------------|-----------------------|
|-------------------|---------------|-----------------------|


  F                       Cm
                           ~~
   +H      +E    +E        Q   E  E  E  E
|-(15)----(15)r-(15)b18-|-15--------------|
|-----------------------|-----13-15-16-13-|
|-----------------------|-----------------|
|-----------------------|-----------------|
|-----------------------|-----------------|
|-----------------------|-----------------|


  Bb              Gm
   ~~
   Q   E  E  Q     H     +E   +E
|-----------15--|-15----(15)-(15)b17==|
|-11--13-15-----|---------------------|
|---------------|---------------------|
|---------------|---------------------|
|---------------|---------------------|
|---------------|---------------------|


                            Outro
  F                          G+7/B                       Cm
                               ~~~~                        ~~~~
     H       +E    +E          H      +E   +S      +S     +H.
|-([15])----(15)r-(15)b18-||-[15]----(15)-(15)b16r(15)-|-(15)----|
|-------------------------||---------------------------|---------|
|-------------------------||---------------------------|---------|
|-------------------------||---------------------------|---------|
|-------------------------||---------------------------|---------|
|-------------------------||---------------------------|---------|


  Am          Bbsus4/F    Eb+7/G      G#madd4
    ~~~~~~~~~~~~~~~~~~~~~~~~~~~~~~~~~~~~~~~
   +H.         +H.         +H.         +H      Q
|-(15)------|-(15)------|-(15)------|-(15)----18b20===|
|-----------|-----------|-----------|-----------------|
|-----------|-----------|-----------|-----------------|
|-----------|-----------|-----------|-----------------|
|-----------|-----------|-----------|-----------------|
|-----------|-----------|-----------|-----------------|


  Bbsus2/F             F#                  Esus4add6
                                             ~~~~
    H       +Q          +H      +E   +E     +H.
|-[18]r----(18)b21===|=(18)----(18)-(18)r|=(18)----*|
|--------------------|-------------------|---------*|
|--------------------|-------------------|---------*|
|--------------------|-------------------|---------*|
|--------------------|-------------------|---------*|
|--------------------|-------------------|---------*|



Duration Legend
---------------
W - whole; H - half; Q - quarter; E - 8th; S - 16th; T - 32nd; X - 64th; a - acciaccatura
+ - note tied to previous; . - note dotted; .. - note double dotted
Uncapitalized letters represent notes that are staccato (1/2 duration)
Irregular groupings are notated above the duration line
Duration letters will always appear directly above the note/fret number it represents the
duration for.  Duration letters with no fret number below them represent rests.  Multi-
bar rests are notated in the form Wxn, where n is the number of bars to rest for.  Low
melody durations appear below the staff

Tablature Legend
----------------
 h   - hammer-on
 p   - pull-off
 b   - bend
 pb  - pre-bend
 r   - bend release (if no number after the r, then release immediately)
 /\  - slide into or out of (from/to "nowhere")
 s   - legato slide
 S   - shift slide
 - natural harmonic
[n]  - artificial harmonic
n(n) - tapped harmonic
 ~   - vibrato
 tr  - trill
 T   - tap
 TP  - trem. picking
 PM  - palm muting
\n/  - tremolo bar dip; n = amount to dip
 \n  - tremolo bar down
 n/  - tremolo bar up
/n\  - tremolo bar inverted dip
 =   - hold bend; also acts as connecting device for hammers/pulls
 <> - volume swell (louder/softer)
 x   - on rhythm slash represents muted slash
 o   - on rhythm slash represents single note slash

Misc Legend
-----------
 |  - bar
||  - double bar
||o - repeat start
o|| - repeat end
*|  - double bar (ending)
 :  - bar (freetime)
 $  - Segno
 &  - Coda
Tempo markers -  = BPM(8/16=s8/s16), where s8 = swing 8ths, s16 = swing 16ths

Related for Respect The Wind tab